ISO-10303-21;
HEADER;
FILE_DESCRIPTION (( 'STEP AP203' ),
    '1' );
FILE_NAME ('SPC_125 rev 002.STEP',
    '2017-02-23T19:53:39',
    ( '' ),
    ( '' ),
    'SwSTEP 2.0',
    'SolidWorks 2016',
    '' );
FILE_SCHEMA (( 'CONFIG_CONTROL_DESIGN' ));
ENDSEC;

DATA;
#1 = ORIENTED_EDGE ( 'NONE', *, *, #52, .T. ) ;
#2 = AXIS2_PLACEMENT_3D ( 'NONE', #122, #240, #140 ) ;
#3 = ORIENTED_EDGE ( 'NONE', *, *, #59, .T. ) ;
#4 = CALENDAR_DATE ( 2017, 23, 2 ) ;
#5 = CARTESIAN_POINT ( 'NONE',  ( 0.008845315641737131600, 0.1200000000000000000, 0.1250000000000000000 ) ) ;
#6 = EDGE_LOOP ( 'NONE', ( #177, #13 ) ) ;
#7 = PLANE ( 'NONE',  #40 ) ;
#8 = CC_DESIGN_PERSON_AND_ORGANIZATION_ASSIGNMENT ( #134, #213, ( #45 ) ) ;
#9 = CARTESIAN_POINT ( 'NONE',  ( 2.204364238465235500E-017, 0.1200000000000000000, 0.1799999999999999900 ) ) ;
#10 = CIRCLE ( 'NONE', #106, 0.1799999999999999900 ) ;
#11 = DIRECTION ( 'NONE',  ( 0.0000000000000000000, 1.000000000000000000, 0.0000000000000000000 ) ) ;
#12 = CLOSED_SHELL ( 'NONE', ( #103, #186, #25, #201, #44, #126 ) ) ;
#13 = ORIENTED_EDGE ( 'NONE', *, *, #217, .T. ) ;
#14 = DIRECTION ( 'NONE',  ( 0.0000000000000000000, 0.0000000000000000000, 1.000000000000000000 ) ) ;
#15 = FACE_BOUND ( 'NONE', #174, .T. ) ;
#16 = DATE_AND_TIME ( #220, #239 ) ;
#17 = DATE_AND_TIME ( #123, #196 ) ;
#18 = DIRECTION ( 'NONE',  ( 1.000000000000000000, 0.0000000000000000000, 0.0000000000000000000 ) ) ;
#19 = LINE ( 'NONE', #9, #65 ) ;
#20 = CALENDAR_DATE ( 2017, 23, 2 ) ;
#21 = CC_DESIGN_APPROVAL ( #35, ( #45 ) ) ;
#22 = DIRECTION ( 'NONE',  ( 0.0000000000000000000, 0.0000000000000000000, -1.000000000000000000 ) ) ;
#23 = DIRECTION ( 'NONE',  ( 0.0000000000000000000, 0.0000000000000000000, 1.000000000000000000 ) ) ;
#24 = CARTESIAN_POINT ( 'NONE',  ( 0.0000000000000000000, 0.0000000000000000000, 0.0000000000000000000 ) ) ;
#25 = ADVANCED_FACE ( 'NONE', ( #81, #15 ), #142, .T. ) ;
#26 = UNCERTAINTY_MEASURE_WITH_UNIT (LENGTH_MEASURE( 1.000000000000000100E-005 ), #136, 'distance_accuracy_value', 'NONE');
#27 = AXIS2_PLACEMENT_3D ( 'NONE', #100, #175, #23 ) ;
#28 = FACE_OUTER_BOUND ( 'NONE', #188, .T. ) ;
#29 = LOCAL_TIME ( 11, 53, 39.00000000000000000, #119 ) ;
#30 = CYLINDRICAL_SURFACE ( 'NONE', #229, 0.1250000000000000000 ) ;
#31 = DIRECTION ( 'NONE',  ( 0.0000000000000000000, 0.0000000000000000000, -1.000000000000000000 ) ) ;
#32 = AXIS2_PLACEMENT_3D ( 'NONE', #202, #51, #31 ) ;
#33 = CARTESIAN_POINT ( 'NONE',  ( 0.0000000000000000000, 0.0000000000000000000, -0.1799999999999999900 ) ) ;
#34 = EDGE_LOOP ( 'NONE', ( #84, #56 ) ) ;
#35 = APPROVAL ( #154, 'UNSPECIFIED' ) ;
#36 = CARTESIAN_POINT ( 'NONE',  ( 0.008845315641737117700, 0.1200000000000000000, 0.0000000000000000000 ) ) ;
#37 = ORIENTED_EDGE ( 'NONE', *, *, #39, .T. ) ;
#38 = DATE_AND_TIME ( #20, #183 ) ;
#39 = EDGE_CURVE ( 'NONE', #88, #98, #107, .T. ) ;
#40 = AXIS2_PLACEMENT_3D ( 'NONE', #242, #101, #199 ) ;
#41 = CARTESIAN_POINT ( 'NONE',  ( 0.008845315641737131600, 0.0000000000000000000, 0.1250000000000000000 ) ) ;
#42 = VERTEX_POINT ( 'NONE', #149 ) ;
#43 = DIRECTION ( 'NONE',  ( 0.0000000000000000000, 0.0000000000000000000, 1.000000000000000000 ) ) ;
#44 = ADVANCED_FACE ( 'NONE', ( #28 ), #54, .T. ) ;
#45 = PRODUCT_DEFINITION_FORMATION_WITH_SPECIFIED_SOURCE ( 'ANY', '', #200, .NOT_KNOWN. ) ;
#46 = COORDINATED_UNIVERSAL_TIME_OFFSET ( 8, 0, .BEHIND. ) ;
#47 = CARTESIAN_POINT ( 'NONE',  ( 0.0000000000000000000, 0.1200000000000000000, 0.0000000000000000000 ) ) ;
#48 = PERSON_AND_ORGANIZATION ( #111, #67 ) ;
#49 = FACE_OUTER_BOUND ( 'NONE', #93, .T. ) ;
#50 = ORIENTED_EDGE ( 'NONE', *, *, #181, .T. ) ;
#51 = DIRECTION ( 'NONE',  ( -0.0000000000000000000, -1.000000000000000000, -0.0000000000000000000 ) ) ;
#52 = EDGE_CURVE ( 'NONE', #176, #88, #61, .T. ) ;
#53 = PERSON_AND_ORGANIZATION_ROLE ( 'classification_officer' ) ;
#54 = CYLINDRICAL_SURFACE ( 'NONE', #32, 0.1799999999999999900 ) ;
#55 = DIRECTION ( 'NONE',  ( 0.0000000000000000000, 0.0000000000000000000, 1.000000000000000000 ) ) ;
#56 = ORIENTED_EDGE ( 'NONE', *, *, #235, .T. ) ;
#57 = CIRCLE ( 'NONE', #27, 0.1250000000000000000 ) ;
#58 = APPLICATION_PROTOCOL_DEFINITION ( 'international standard', 'config_control_design', 1994, #86 ) ;
#59 = EDGE_CURVE ( 'NONE', #170, #164, #97, .T. ) ;
#60 = CC_DESIGN_DATE_AND_TIME_ASSIGNMENT ( #203, #210, ( #112 ) ) ;
#61 = LINE ( 'NONE', #215, #62 ) ;
#62 = VECTOR ( 'NONE', #102, 39.37007874015748100 ) ;
#63 = DIRECTION ( 'NONE',  ( 0.0000000000000000000, 0.0000000000000000000, -1.000000000000000000 ) ) ;
#64 = CARTESIAN_POINT ( 'NONE',  ( 0.0000000000000000000, 0.1200000000000000000, -0.1799999999999999900 ) ) ;
#65 = VECTOR ( 'NONE', #222, 39.37007874015748100 ) ;
#66 = DIRECTION ( 'NONE',  ( 0.0000000000000000000, 1.000000000000000000, 0.0000000000000000000 ) ) ;
#67 = ORGANIZATION ( 'UNSPECIFIED', 'UNSPECIFIED', '' ) ;
#68 = CARTESIAN_POINT ( 'NONE',  ( 0.0000000000000000000, 0.1200000000000000000, 0.0000000000000000000 ) ) ;
#69 = APPROVAL_DATE_TIME ( #38, #35 ) ;
#70 = CC_DESIGN_PERSON_AND_ORGANIZATION_ASSIGNMENT ( #48, #252, ( #112 ) ) ;
#71 = PERSON_AND_ORGANIZATION_ROLE ( 'design_supplier' ) ;
#72 = ORIENTED_EDGE ( 'NONE', *, *, #193, .T. ) ;
#73 = CARTESIAN_POINT ( 'NONE',  ( 0.008845315641737131600, 0.1200000000000000000, 0.1250000000000000000 ) ) ;
#74 = LOCAL_TIME ( 11, 53, 39.00000000000000000, #87 ) ;
#75 = LINE ( 'NONE', #223, #95 ) ;
#76 = AXIS2_PLACEMENT_3D ( 'NONE', #36, #66, #162 ) ;
#77 = FACE_OUTER_BOUND ( 'NONE', #132, .T. ) ;
#78 = CARTESIAN_POINT ( 'NONE',  ( 0.0000000000000000000, 0.0000000000000000000, 0.0000000000000000000 ) ) ;
#79 = ORIENTED_EDGE ( 'NONE', *, *, #189, .T. ) ;
#80 = CC_DESIGN_APPROVAL ( #94, ( #112 ) ) ;
#81 = FACE_OUTER_BOUND ( 'NONE', #34, .T. ) ;
#82 = AXIS2_PLACEMENT_3D ( 'NONE', #78, #152, #55 ) ;
#83 = ORIENTED_EDGE ( 'NONE', *, *, #245, .T. ) ;
#84 = ORIENTED_EDGE ( 'NONE', *, *, #85, .T. ) ;
#85 = EDGE_CURVE ( 'NONE', #176, #185, #159, .T. ) ;
#86 = APPLICATION_CONTEXT ( 'configuration controlled 3d designs of mechanical parts and assemblies' ) ;
#87 = COORDINATED_UNIVERSAL_TIME_OFFSET ( 8, 0, .BEHIND. ) ;
#88 = VERTEX_POINT ( 'NONE', #33 ) ;
#89 = APPROVAL_ROLE ( '' ) ;
#90 = APPROVAL_ROLE ( '' ) ;
#91 = FACE_BOUND ( 'NONE', #6, .T. ) ;
#92 = ORIENTED_EDGE ( 'NONE', *, *, #39, .F. ) ;
#93 = EDGE_LOOP ( 'NONE', ( #92, #115 ) ) ;
#94 = APPROVAL ( #234, 'UNSPECIFIED' ) ;
#95 = VECTOR ( 'NONE', #212, 39.37007874015748100 ) ;
#96 = FACE_OUTER_BOUND ( 'NONE', #141, .T. ) ;
#97 = CIRCLE ( 'NONE', #205, 0.1250000000000000000 ) ;
#98 = VERTEX_POINT ( 'NONE', #228 ) ;
#99 = SHAPE_DEFINITION_REPRESENTATION ( #109, #120 ) ;
#100 = CARTESIAN_POINT ( 'NONE',  ( 0.008845315641737117700, 0.0000000000000000000, 0.0000000000000000000 ) ) ;
#101 = DIRECTION ( 'NONE',  ( 0.0000000000000000000, 1.000000000000000000, 0.0000000000000000000 ) ) ;
#102 = DIRECTION ( 'NONE',  ( -0.0000000000000000000, -1.000000000000000000, -0.0000000000000000000 ) ) ;
#103 = ADVANCED_FACE ( 'NONE', ( #161 ), #30, .F. ) ;
#104 = DIRECTION ( 'NONE',  ( 0.0000000000000000000, 0.0000000000000000000, 1.000000000000000000 ) ) ;
#105 = ORIENTED_EDGE ( 'NONE', *, *, #85, .F. ) ;
#106 = AXIS2_PLACEMENT_3D ( 'NONE', #47, #147, #14 ) ;
#107 = CIRCLE ( 'NONE', #232, 0.1799999999999999900 ) ;
#108 = CIRCLE ( 'NONE', #76, 0.1250000000000000000 ) ;
#109 = PRODUCT_DEFINITION_SHAPE ( 'NONE', 'NONE',  #112 ) ;
#110 = CARTESIAN_POINT ( 'NONE',  ( 0.0000000000000000000, 0.0000000000000000000, 0.0000000000000000000 ) ) ;
#111 = PERSON ( 'UNSPECIFIED', 'UNSPECIFIED', 'UNSPECIFIED', ('UNSPECIFIED'), ('UNSPECIFIED'), ('UNSPECIFIED') ) ;
#112 = PRODUCT_DEFINITION ( 'UNKNOWN', '', #45, #155 ) ;
#113 = ORIENTED_EDGE ( 'NONE', *, *, #193, .F. ) ;
#114 = APPROVAL_STATUS ( 'not_yet_approved' ) ;
#115 = ORIENTED_EDGE ( 'NONE', *, *, #189, .F. ) ;
#116 = CALENDAR_DATE ( 2017, 23, 2 ) ;
#117 = COORDINATED_UNIVERSAL_TIME_OFFSET ( 8, 0, .BEHIND. ) ;
#118 =( NAMED_UNIT ( * ) PLANE_ANGLE_UNIT ( ) SI_UNIT ( $, .RADIAN. ) );
#119 = COORDINATED_UNIVERSAL_TIME_OFFSET ( 8, 0, .BEHIND. ) ;
#120 = ADVANCED_BREP_SHAPE_REPRESENTATION ( 'SPC_125 rev 002', ( #130, #138 ), #191 ) ;
#121 = CIRCLE ( 'NONE', #82, 0.1799999999999999900 ) ;
#122 = CARTESIAN_POINT ( 'NONE',  ( 0.008845315641737117700, 0.1200000000000000000, 0.0000000000000000000 ) ) ;
#123 = CALENDAR_DATE ( 2017, 23, 2 ) ;
#124 = VECTOR ( 'NONE', #171, 39.37007874015748100 ) ;
#125 = DIRECTION ( 'NONE',  ( 0.0000000000000000000, 0.0000000000000000000, 1.000000000000000000 ) ) ;
#126 = ADVANCED_FACE ( 'NONE', ( #77 ), #237, .F. ) ;
#127 = CC_DESIGN_PERSON_AND_ORGANIZATION_ASSIGNMENT ( #157, #169, ( #200 ) ) ;
#128 = PERSON_AND_ORGANIZATION ( #111, #67 ) ;
#129 = DIRECTION ( 'NONE',  ( 0.0000000000000000000, 0.0000000000000000000, 1.000000000000000000 ) ) ;
#130 = MANIFOLD_SOLID_BREP ( 'Boss-Extrude1', #12 ) ;
#131 = CARTESIAN_POINT ( 'NONE',  ( 0.0000000000000000000, 0.1200000000000000000, 0.0000000000000000000 ) ) ;
#132 = EDGE_LOOP ( 'NONE', ( #113, #50, #83, #180 ) ) ;
#133 = EDGE_CURVE ( 'NONE', #185, #98, #19, .T. ) ;
#134 = PERSON_AND_ORGANIZATION ( #111, #67 ) ;
#135 = AXIS2_PLACEMENT_3D ( 'NONE', #187, #198, #179 ) ;
#136 =( CONVERSION_BASED_UNIT ( 'INCH', #249 ) LENGTH_UNIT ( ) NAMED_UNIT ( #226 ) );
#137 = VERTEX_POINT ( 'NONE', #41 ) ;
#138 = AXIS2_PLACEMENT_3D ( 'NONE', #110, #129, #18 ) ;
#139 = CYLINDRICAL_SURFACE ( 'NONE', #158, 0.1799999999999999900 ) ;
#140 = DIRECTION ( 'NONE',  ( 0.0000000000000000000, 0.0000000000000000000, -1.000000000000000000 ) ) ;
#141 = EDGE_LOOP ( 'NONE', ( #151, #150, #79, #246 ) ) ;
#142 = PLANE ( 'NONE',  #219 ) ;
#143 = EDGE_CURVE ( 'NONE', #42, #137, #57, .T. ) ;
#144 = DIRECTION ( 'NONE',  ( -0.0000000000000000000, -1.000000000000000000, -0.0000000000000000000 ) ) ;
#145 = DIRECTION ( 'NONE',  ( 0.0000000000000000000, 1.000000000000000000, 0.0000000000000000000 ) ) ;
#146 = COORDINATED_UNIVERSAL_TIME_OFFSET ( 8, 0, .BEHIND. ) ;
#147 = DIRECTION ( 'NONE',  ( 0.0000000000000000000, 1.000000000000000000, 0.0000000000000000000 ) ) ;
#148 = DIRECTION ( 'NONE',  ( 0.0000000000000000000, 1.000000000000000000, 0.0000000000000000000 ) ) ;
#149 = CARTESIAN_POINT ( 'NONE',  ( 0.008845315641737117700, 0.0000000000000000000, -0.1250000000000000000 ) ) ;
#150 = ORIENTED_EDGE ( 'NONE', *, *, #133, .T. ) ;
#151 = ORIENTED_EDGE ( 'NONE', *, *, #235, .F. ) ;
#152 = DIRECTION ( 'NONE',  ( 0.0000000000000000000, 1.000000000000000000, 0.0000000000000000000 ) ) ;
#153 = APPLICATION_CONTEXT ( 'configuration controlled 3d designs of mechanical parts and assemblies' ) ;
#154 = APPROVAL_STATUS ( 'not_yet_approved' ) ;
#155 = DESIGN_CONTEXT ( 'detailed design', #86, 'design' ) ;
#156 = PRODUCT_RELATED_PRODUCT_CATEGORY ( 'detail', '', ( #200 ) ) ;
#157 = PERSON_AND_ORGANIZATION ( #111, #67 ) ;
#158 = AXIS2_PLACEMENT_3D ( 'NONE', #230, #144, #63 ) ;
#159 = CIRCLE ( 'NONE', #221, 0.1799999999999999900 ) ;
#160 = ORIENTED_EDGE ( 'NONE', *, *, #143, .F. ) ;
#161 = FACE_OUTER_BOUND ( 'NONE', #168, .T. ) ;
#162 = DIRECTION ( 'NONE',  ( 0.0000000000000000000, 0.0000000000000000000, 1.000000000000000000 ) ) ;
#163 = ORIENTED_EDGE ( 'NONE', *, *, #245, .F. ) ;
#164 = VERTEX_POINT ( 'NONE', #5 ) ;
#165 = PERSON_AND_ORGANIZATION ( #111, #67 ) ;
#166 = CC_DESIGN_SECURITY_CLASSIFICATION ( #238, ( #45 ) ) ;
#167 = APPROVAL_PERSON_ORGANIZATION ( #218, #94, #90 ) ;
#168 = EDGE_LOOP ( 'NONE', ( #3, #72, #160, #163 ) ) ;
#169 = PERSON_AND_ORGANIZATION_ROLE ( 'design_owner' ) ;
#170 = VERTEX_POINT ( 'NONE', #182 ) ;
#171 = DIRECTION ( 'NONE',  ( -0.0000000000000000000, -1.000000000000000000, -0.0000000000000000000 ) ) ;
#172 = APPROVAL_DATE_TIME ( #16, #195 ) ;
#173 = APPLICATION_PROTOCOL_DEFINITION ( 'international standard', 'config_control_design', 1994, #153 ) ;
#174 = EDGE_LOOP ( 'NONE', ( #247, #211 ) ) ;
#175 = DIRECTION ( 'NONE',  ( 0.0000000000000000000, 1.000000000000000000, 0.0000000000000000000 ) ) ;
#176 = VERTEX_POINT ( 'NONE', #64 ) ;
#177 = ORIENTED_EDGE ( 'NONE', *, *, #143, .T. ) ;
#178 = LINE ( 'NONE', #73, #124 ) ;
#179 = DIRECTION ( 'NONE',  ( 0.0000000000000000000, 0.0000000000000000000, 1.000000000000000000 ) ) ;
#180 = ORIENTED_EDGE ( 'NONE', *, *, #217, .F. ) ;
#181 = EDGE_CURVE ( 'NONE', #164, #170, #108, .T. ) ;
#182 = CARTESIAN_POINT ( 'NONE',  ( 0.008845315641737117700, 0.1200000000000000000, -0.1250000000000000000 ) ) ;
#183 = LOCAL_TIME ( 11, 53, 39.00000000000000000, #117 ) ;
#184 = CC_DESIGN_APPROVAL ( #195, ( #238 ) ) ;
#185 = VERTEX_POINT ( 'NONE', #190 ) ;
#186 = ADVANCED_FACE ( 'NONE', ( #96 ), #139, .T. ) ;
#187 = CARTESIAN_POINT ( 'NONE',  ( 0.008845315641737117700, 0.0000000000000000000, 0.0000000000000000000 ) ) ;
#188 = EDGE_LOOP ( 'NONE', ( #233, #105, #1, #37 ) ) ;
#189 = EDGE_CURVE ( 'NONE', #98, #88, #121, .T. ) ;
#190 = CARTESIAN_POINT ( 'NONE',  ( 2.204364238465235500E-017, 0.1200000000000000000, 0.1799999999999999900 ) ) ;
#191 =( GEOMETRIC_REPRESENTATION_CONTEXT ( 3 ) GLOBAL_UNCERTAINTY_ASSIGNED_CONTEXT ( ( #26 ) ) GLOBAL_UNIT_ASSIGNED_CONTEXT ( ( #136, #118, #216 ) ) REPRESENTATION_CONTEXT ( 'NONE', 'WORKASPACE' ) );
#192 = SECURITY_CLASSIFICATION_LEVEL ( 'unclassified' ) ;
#193 = EDGE_CURVE ( 'NONE', #164, #137, #178, .T. ) ;
#194 = APPROVAL_PERSON_ORGANIZATION ( #165, #35, #89 ) ;
#195 = APPROVAL ( #114, 'UNSPECIFIED' ) ;
#196 = LOCAL_TIME ( 11, 53, 39.00000000000000000, #46 ) ;
#197 = APPROVAL_PERSON_ORGANIZATION ( #128, #195, #250 ) ;
#198 = DIRECTION ( 'NONE',  ( 0.0000000000000000000, 1.000000000000000000, 0.0000000000000000000 ) ) ;
#199 = DIRECTION ( 'NONE',  ( 0.0000000000000000000, -0.0000000000000000000, 1.000000000000000000 ) ) ;
#200 = PRODUCT ( 'SPC_125 rev 002', 'SPC_125 rev 002', '', ( #214 ) ) ;
#201 = ADVANCED_FACE ( 'NONE', ( #49, #91 ), #7, .F. ) ;
#202 = CARTESIAN_POINT ( 'NONE',  ( 0.0000000000000000000, 0.1200000000000000000, 0.0000000000000000000 ) ) ;
#203 = DATE_AND_TIME ( #4, #74 ) ;
#204 = DIRECTION ( 'NONE',  ( 0.0000000000000000000, -0.0000000000000000000, 1.000000000000000000 ) ) ;
#205 = AXIS2_PLACEMENT_3D ( 'NONE', #227, #243, #104 ) ;
#206 = CC_DESIGN_DATE_AND_TIME_ASSIGNMENT ( #17, #231, ( #238 ) ) ;
#207 = CIRCLE ( 'NONE', #135, 0.1250000000000000000 ) ;
#208 = DIRECTION ( 'NONE',  ( -0.0000000000000000000, -1.000000000000000000, -0.0000000000000000000 ) ) ;
#209 = DATE_AND_TIME ( #116, #29 ) ;
#210 = DATE_TIME_ROLE ( 'creation_date' ) ;
#211 = ORIENTED_EDGE ( 'NONE', *, *, #181, .F. ) ;
#212 = DIRECTION ( 'NONE',  ( -0.0000000000000000000, -1.000000000000000000, -0.0000000000000000000 ) ) ;
#213 = PERSON_AND_ORGANIZATION_ROLE ( 'creator' ) ;
#214 = MECHANICAL_CONTEXT ( 'NONE', #153, 'mechanical' ) ;
#215 = CARTESIAN_POINT ( 'NONE',  ( 0.0000000000000000000, 0.1200000000000000000, -0.1799999999999999900 ) ) ;
#216 =( NAMED_UNIT ( * ) SI_UNIT ( $, .STERADIAN. ) SOLID_ANGLE_UNIT ( ) );
#217 = EDGE_CURVE ( 'NONE', #137, #42, #207, .T. ) ;
#218 = PERSON_AND_ORGANIZATION ( #111, #67 ) ;
#219 = AXIS2_PLACEMENT_3D ( 'NONE', #68, #145, #204 ) ;
#220 = CALENDAR_DATE ( 2017, 23, 2 ) ;
#221 = AXIS2_PLACEMENT_3D ( 'NONE', #131, #11, #43 ) ;
#222 = DIRECTION ( 'NONE',  ( -0.0000000000000000000, -1.000000000000000000, -0.0000000000000000000 ) ) ;
#223 = CARTESIAN_POINT ( 'NONE',  ( 0.008845315641737117700, 0.1200000000000000000, -0.1250000000000000000 ) ) ;
#224 = CC_DESIGN_PERSON_AND_ORGANIZATION_ASSIGNMENT ( #241, #53, ( #238 ) ) ;
#225 = CARTESIAN_POINT ( 'NONE',  ( 0.008845315641737117700, 0.1200000000000000000, 0.0000000000000000000 ) ) ;
#226 = DIMENSIONAL_EXPONENTS ( 1.000000000000000000, 0.0000000000000000000, 0.0000000000000000000, 0.0000000000000000000, 0.0000000000000000000, 0.0000000000000000000, 0.0000000000000000000 ) ;
#227 = CARTESIAN_POINT ( 'NONE',  ( 0.008845315641737117700, 0.1200000000000000000, 0.0000000000000000000 ) ) ;
#228 = CARTESIAN_POINT ( 'NONE',  ( 2.204364238465235500E-017, 0.0000000000000000000, 0.1799999999999999900 ) ) ;
#229 = AXIS2_PLACEMENT_3D ( 'NONE', #225, #208, #22 ) ;
#230 = CARTESIAN_POINT ( 'NONE',  ( 0.0000000000000000000, 0.1200000000000000000, 0.0000000000000000000 ) ) ;
#231 = DATE_TIME_ROLE ( 'classification_date' ) ;
#232 = AXIS2_PLACEMENT_3D ( 'NONE', #24, #148, #125 ) ;
#233 = ORIENTED_EDGE ( 'NONE', *, *, #133, .F. ) ;
#234 = APPROVAL_STATUS ( 'not_yet_approved' ) ;
#235 = EDGE_CURVE ( 'NONE', #185, #176, #10, .T. ) ;
#236 = PERSON_AND_ORGANIZATION ( #111, #67 ) ;
#237 = CYLINDRICAL_SURFACE ( 'NONE', #2, 0.1250000000000000000 ) ;
#238 = SECURITY_CLASSIFICATION ( '', '', #192 ) ;
#239 = LOCAL_TIME ( 11, 53, 39.00000000000000000, #146 ) ;
#240 = DIRECTION ( 'NONE',  ( -0.0000000000000000000, -1.000000000000000000, -0.0000000000000000000 ) ) ;
#241 = PERSON_AND_ORGANIZATION ( #111, #67 ) ;
#242 = CARTESIAN_POINT ( 'NONE',  ( 0.0000000000000000000, 0.0000000000000000000, 0.0000000000000000000 ) ) ;
#243 = DIRECTION ( 'NONE',  ( 0.0000000000000000000, 1.000000000000000000, 0.0000000000000000000 ) ) ;
#244 = APPROVAL_DATE_TIME ( #209, #94 ) ;
#245 = EDGE_CURVE ( 'NONE', #170, #42, #75, .T. ) ;
#246 = ORIENTED_EDGE ( 'NONE', *, *, #52, .F. ) ;
#247 = ORIENTED_EDGE ( 'NONE', *, *, #59, .F. ) ;
#248 = CC_DESIGN_PERSON_AND_ORGANIZATION_ASSIGNMENT ( #236, #71, ( #45 ) ) ;
#249 = LENGTH_MEASURE_WITH_UNIT ( LENGTH_MEASURE( 0.02539999999999999900 ), #251 );
#250 = APPROVAL_ROLE ( '' ) ;
#251 =( LENGTH_UNIT ( ) NAMED_UNIT ( * ) SI_UNIT ( $, .METRE. ) );
#252 = PERSON_AND_ORGANIZATION_ROLE ( 'creator' ) ;
ENDSEC;
END-ISO-10303-21;
