ISO-10303-21;
HEADER;
FILE_DESCRIPTION (( 'STEP AP203' ),
    '1' );
FILE_NAME ('RTN 150.STEP',
    '2011-08-10T16:06:56',
    ( '' ),
    ( '' ),
    'SwSTEP 2.0',
    'SolidWorks 2011',
    '' );
FILE_SCHEMA (( 'CONFIG_CONTROL_DESIGN' ));
ENDSEC;

DATA;
#1 = EDGE_CURVE ( 'NONE', #247, #37, #200, .T. ) ;
#2 = EDGE_CURVE ( 'NONE', #38, #245, #206, .T. ) ;
#3 = EDGE_CURVE ( 'NONE', #36, #248, #76, .T. ) ;
#4 = EDGE_CURVE ( 'NONE', #248, #35, #205, .T. ) ;
#5 = EDGE_CURVE ( 'NONE', #34, #35, #80, .T. ) ;
#6 = EDGE_CURVE ( 'NONE', #34, #36, #207, .T. ) ;
#7 = EDGE_CURVE ( 'NONE', #245, #38, #210, .T. ) ;
#8 = EDGE_CURVE ( 'NONE', #35, #248, #211, .T. ) ;
#9 = EDGE_CURVE ( 'NONE', #37, #247, #215, .T. ) ;
#10 = ADVANCED_FACE ( 'NONE', ( #98, #89 ), #103, .T. ) ;
#11 = ADVANCED_FACE ( 'NONE', ( #106 ), #108, .T. ) ;
#12 = ADVANCED_FACE ( 'NONE', ( #110 ), #113, .F. ) ;
#13 = ADVANCED_FACE ( 'NONE', ( #116, #117 ), #118, .F. ) ;
#14 = ADVANCED_FACE ( 'NONE', ( #122 ), #124, .T. ) ;
#15 = ADVANCED_FACE ( 'NONE', ( #126 ), #129, .F. ) ;
#16 = CC_DESIGN_PERSON_AND_ORGANIZATION_ASSIGNMENT ( #158, #159, ( #33 ) ) ;
#17 = PRODUCT_DEFINITION ( 'UNKNOWN', '', #236, #251 ) ;
#18 = APPROVAL ( #162, 'UNSPECIFIED' ) ;
#19 = CC_DESIGN_PERSON_AND_ORGANIZATION_ASSIGNMENT ( #168, #169, ( #17 ) ) ;
#20 = CC_DESIGN_DATE_AND_TIME_ASSIGNMENT ( #172, #173, ( #17 ) ) ;
#21 = APPROVAL ( #175, 'UNSPECIFIED' ) ;
#22 = CC_DESIGN_PERSON_AND_ORGANIZATION_ASSIGNMENT ( #181, #182, ( #236 ) ) ;
#23 = CC_DESIGN_PERSON_AND_ORGANIZATION_ASSIGNMENT ( #183, #184, ( #236 ) ) ;
#24 = CC_DESIGN_PERSON_AND_ORGANIZATION_ASSIGNMENT ( #186, #187, ( #241 ) ) ;
#25 = CC_DESIGN_DATE_AND_TIME_ASSIGNMENT ( #190, #191, ( #241 ) ) ;
#26 = APPROVAL ( #193, 'UNSPECIFIED' ) ;
#27 = PRODUCT_RELATED_PRODUCT_CATEGORY ( 'detail', '', ( #33 ) ) ;
#28 = ADVANCED_BREP_SHAPE_REPRESENTATION ( 'RTN 150', ( #249, #230 ), #229 ) ;
#29 = PERSON ( 'UNSPECIFIED', 'UNSPECIFIED', 'UNSPECIFIED', ('UNSPECIFIED'), ('UNSPECIFIED'), ('UNSPECIFIED') ) ;
#30 = APPLICATION_CONTEXT ( 'configuration controlled 3d designs of mechanical parts and assemblies' ) ;
#31 = APPLICATION_CONTEXT ( 'configuration controlled 3d designs of mechanical parts and assemblies' ) ;
#32 = DIMENSIONAL_EXPONENTS ( 1.000000000000000000, 0.0000000000000000000, 0.0000000000000000000, 0.0000000000000000000, 0.0000000000000000000, 0.0000000000000000000, 0.0000000000000000000 ) ;
#33 = PRODUCT ( 'RTN 150', 'RTN 150', '', ( #153 ) ) ;
#34 = VERTEX_POINT ( 'NONE', #132 ) ;
#35 = VERTEX_POINT ( 'NONE', #133 ) ;
#36 = VERTEX_POINT ( 'NONE', #134 ) ;
#37 = VERTEX_POINT ( 'NONE', #135 ) ;
#38 = VERTEX_POINT ( 'NONE', #136 ) ;
#39 = ORIENTED_EDGE ( 'NONE', *, *, #5, .F. ) ;
#40 = ORIENTED_EDGE ( 'NONE', *, *, #6, .T. ) ;
#41 = ORIENTED_EDGE ( 'NONE', *, *, #246, .T. ) ;
#42 = ORIENTED_EDGE ( 'NONE', *, *, #2, .F. ) ;
#43 = ORIENTED_EDGE ( 'NONE', *, *, #7, .F. ) ;
#44 = ORIENTED_EDGE ( 'NONE', *, *, #8, .F. ) ;
#45 = ORIENTED_EDGE ( 'NONE', *, *, #4, .F. ) ;
#46 = ORIENTED_EDGE ( 'NONE', *, *, #1, .T. ) ;
#47 = ORIENTED_EDGE ( 'NONE', *, *, #9, .T. ) ;
#48 = ORIENTED_EDGE ( 'NONE', *, *, #3, .F. ) ;
#49 = ORIENTED_EDGE ( 'NONE', *, *, #5, .T. ) ;
#50 = ORIENTED_EDGE ( 'NONE', *, *, #8, .T. ) ;
#51 = ORIENTED_EDGE ( 'NONE', *, *, #244, .F. ) ;
#52 = ORIENTED_EDGE ( 'NONE', *, *, #7, .T. ) ;
#53 = ORIENTED_EDGE ( 'NONE', *, *, #218, .T. ) ;
#54 = ORIENTED_EDGE ( 'NONE', *, *, #9, .F. ) ;
#55 = CARTESIAN_POINT ( 'NONE',  ( 0.0000000000000000000, 0.0000000000000000000, 0.0000000000000000000 ) ) ;
#56 = ORIENTED_EDGE ( 'NONE', *, *, #244, .T. ) ;
#57 = ORIENTED_EDGE ( 'NONE', *, *, #6, .F. ) ;
#58 = ORIENTED_EDGE ( 'NONE', *, *, #2, .T. ) ;
#59 = ORIENTED_EDGE ( 'NONE', *, *, #1, .F. ) ;
#60 = ORIENTED_EDGE ( 'NONE', *, *, #218, .F. ) ;
#61 = ORIENTED_EDGE ( 'NONE', *, *, #246, .F. ) ;
#62 = ORIENTED_EDGE ( 'NONE', *, *, #3, .T. ) ;
#63 = ORIENTED_EDGE ( 'NONE', *, *, #4, .T. ) ;
#64 = EDGE_LOOP ( 'NONE', ( #46, #47 ) ) ;
#65 = EDGE_LOOP ( 'NONE', ( #40, #41 ) ) ;
#66 = EDGE_LOOP ( 'NONE', ( #58, #56, #59, #60 ) ) ;
#67 = EDGE_LOOP ( 'NONE', ( #42, #43 ) ) ;
#68 = EDGE_LOOP ( 'NONE', ( #61, #62, #63, #39 ) ) ;
#69 = EDGE_LOOP ( 'NONE', ( #44, #45 ) ) ;
#70 = EDGE_LOOP ( 'NONE', ( #51, #52, #53, #54 ) ) ;
#71 = EDGE_LOOP ( 'NONE', ( #48, #57, #49, #50 ) ) ;
#72 = CARTESIAN_POINT ( 'NONE',  ( 0.1499999999999999900, 0.0000000000000000000, 0.1200000000000000000 ) ) ;
#73 = CARTESIAN_POINT ( 'NONE',  ( 0.1499999999999999900, 1.469576158976823700E-017, -0.1200000000000000000 ) ) ;
#74 = DIRECTION ( 'NONE',  ( 1.000000000000000000, 0.0000000000000000000, 0.0000000000000000000 ) ) ;
#75 = DIRECTION ( 'NONE',  ( 0.0000000000000000000, 0.0000000000000000000, -1.000000000000000000 ) ) ;
#76 = LINE ( 'NONE', #73, #203 ) ;
#77 = CARTESIAN_POINT ( 'NONE',  ( 0.1499999999999999900, 0.0000000000000000000, 0.0000000000000000000 ) ) ;
#78 = DIRECTION ( 'NONE',  ( 1.000000000000000000, 0.0000000000000000000, 0.0000000000000000000 ) ) ;
#79 = DIRECTION ( 'NONE',  ( 0.0000000000000000000, 0.0000000000000000000, -1.000000000000000000 ) ) ;
#80 = LINE ( 'NONE', #72, #208 ) ;
#81 = DIRECTION ( 'NONE',  ( -1.000000000000000000, -0.0000000000000000000, -0.0000000000000000000 ) ) ;
#82 = CARTESIAN_POINT ( 'NONE',  ( 0.0000000000000000000, 0.0000000000000000000, 0.0000000000000000000 ) ) ;
#83 = DIRECTION ( 'NONE',  ( 1.000000000000000000, 0.0000000000000000000, 0.0000000000000000000 ) ) ;
#84 = DIRECTION ( 'NONE',  ( 0.0000000000000000000, 0.0000000000000000000, -1.000000000000000000 ) ) ;
#85 = DIRECTION ( 'NONE',  ( -1.000000000000000000, -0.0000000000000000000, -0.0000000000000000000 ) ) ;
#86 = CARTESIAN_POINT ( 'NONE',  ( 0.1499999999999999900, 0.0000000000000000000, 0.0000000000000000000 ) ) ;
#87 = DIRECTION ( 'NONE',  ( 1.000000000000000000, 0.0000000000000000000, 0.0000000000000000000 ) ) ;
#88 = DIRECTION ( 'NONE',  ( 0.0000000000000000000, 0.0000000000000000000, -1.000000000000000000 ) ) ;
#89 = FACE_BOUND ( 'NONE', #67, .T. ) ;
#90 = CARTESIAN_POINT ( 'NONE',  ( 0.1499999999999999900, 0.0000000000000000000, 0.0000000000000000000 ) ) ;
#91 = DIRECTION ( 'NONE',  ( 1.000000000000000000, 0.0000000000000000000, 0.0000000000000000000 ) ) ;
#92 = DIRECTION ( 'NONE',  ( 0.0000000000000000000, 0.0000000000000000000, -1.000000000000000000 ) ) ;
#93 = CARTESIAN_POINT ( 'NONE',  ( 0.1499999999999999900, 0.0000000000000000000, 0.0000000000000000000 ) ) ;
#94 = DIRECTION ( 'NONE',  ( -1.000000000000000000, -0.0000000000000000000, -0.0000000000000000000 ) ) ;
#95 = CARTESIAN_POINT ( 'NONE',  ( 0.0000000000000000000, 0.0000000000000000000, 0.0000000000000000000 ) ) ;
#96 = DIRECTION ( 'NONE',  ( 1.000000000000000000, 0.0000000000000000000, 0.0000000000000000000 ) ) ;
#97 = DIRECTION ( 'NONE',  ( 0.0000000000000000000, 0.0000000000000000000, -1.000000000000000000 ) ) ;
#98 = FACE_OUTER_BOUND ( 'NONE', #65, .T. ) ;
#99 = DIRECTION ( 'NONE',  ( -1.000000000000000000, -0.0000000000000000000, -0.0000000000000000000 ) ) ;
#100 = CARTESIAN_POINT ( 'NONE',  ( 0.0000000000000000000, 0.0000000000000000000, 0.0000000000000000000 ) ) ;
#101 = DIRECTION ( 'NONE',  ( 1.000000000000000000, 0.0000000000000000000, 0.0000000000000000000 ) ) ;
#102 = DIRECTION ( 'NONE',  ( 0.0000000000000000000, 0.0000000000000000000, -1.000000000000000000 ) ) ;
#103 = PLANE ( 'NONE',  #219 ) ;
#104 = DIRECTION ( 'NONE',  ( 1.000000000000000000, 0.0000000000000000000, 0.0000000000000000000 ) ) ;
#105 = DIRECTION ( 'NONE',  ( 0.0000000000000000000, 0.0000000000000000000, -1.000000000000000000 ) ) ;
#106 = FACE_OUTER_BOUND ( 'NONE', #68, .T. ) ;
#107 = CARTESIAN_POINT ( 'NONE',  ( 0.1499999999999999900, 0.0000000000000000000, 0.0000000000000000000 ) ) ;
#108 = CYLINDRICAL_SURFACE ( 'NONE', #223, 0.1200000000000000000 ) ;
#109 = DIRECTION ( 'NONE',  ( 0.0000000000000000000, 0.0000000000000000000, 1.000000000000000000 ) ) ;
#110 = FACE_OUTER_BOUND ( 'NONE', #66, .T. ) ;
#111 = CARTESIAN_POINT ( 'NONE',  ( 0.1499999999999999900, 0.0000000000000000000, 0.0000000000000000000 ) ) ;
#112 = CARTESIAN_POINT ( 'NONE',  ( 0.0000000000000000000, 0.0000000000000000000, 0.0000000000000000000 ) ) ;
#113 = CYLINDRICAL_SURFACE ( 'NONE', #221, 0.08000000000000000200 ) ;
#114 = DIRECTION ( 'NONE',  ( 0.0000000000000000000, 0.0000000000000000000, 1.000000000000000000 ) ) ;
#115 = DIRECTION ( 'NONE',  ( -1.000000000000000000, -0.0000000000000000000, -0.0000000000000000000 ) ) ;
#116 = FACE_OUTER_BOUND ( 'NONE', #69, .T. ) ;
#117 = FACE_BOUND ( 'NONE', #64, .T. ) ;
#118 = PLANE ( 'NONE',  #220 ) ;
#119 = DIRECTION ( 'NONE',  ( -1.000000000000000000, -0.0000000000000000000, -0.0000000000000000000 ) ) ;
#120 = DIRECTION ( 'NONE',  ( 1.000000000000000000, 0.0000000000000000000, 0.0000000000000000000 ) ) ;
#121 = DIRECTION ( 'NONE',  ( 0.0000000000000000000, 0.0000000000000000000, -1.000000000000000000 ) ) ;
#122 = FACE_OUTER_BOUND ( 'NONE', #71, .T. ) ;
#123 = CARTESIAN_POINT ( 'NONE',  ( 0.1499999999999999900, 0.0000000000000000000, 0.0000000000000000000 ) ) ;
#124 = CYLINDRICAL_SURFACE ( 'NONE', #222, 0.1200000000000000000 ) ;
#125 = DIRECTION ( 'NONE',  ( 0.0000000000000000000, 0.0000000000000000000, 1.000000000000000000 ) ) ;
#126 = FACE_OUTER_BOUND ( 'NONE', #70, .T. ) ;
#127 = CARTESIAN_POINT ( 'NONE',  ( 0.1499999999999999900, 0.0000000000000000000, 0.0000000000000000000 ) ) ;
#128 = CARTESIAN_POINT ( 'NONE',  ( 0.1499999999999999900, 0.0000000000000000000, 0.08000000000000000200 ) ) ;
#129 = CYLINDRICAL_SURFACE ( 'NONE', #224, 0.08000000000000000200 ) ;
#130 = DIRECTION ( 'NONE',  ( 0.0000000000000000000, 0.0000000000000000000, 1.000000000000000000 ) ) ;
#131 = LINE ( 'NONE', #128, #225 ) ;
#132 = CARTESIAN_POINT ( 'NONE',  ( 0.1499999999999999900, 0.0000000000000000000, 0.1200000000000000000 ) ) ;
#133 = CARTESIAN_POINT ( 'NONE',  ( 0.0000000000000000000, 0.0000000000000000000, 0.1200000000000000000 ) ) ;
#134 = CARTESIAN_POINT ( 'NONE',  ( 0.1499999999999999900, 1.469576158976823700E-017, -0.1200000000000000000 ) ) ;
#135 = CARTESIAN_POINT ( 'NONE',  ( 0.0000000000000000000, 9.797174393178824000E-018, -0.08000000000000000200 ) ) ;
#136 = CARTESIAN_POINT ( 'NONE',  ( 0.1499999999999999900, 0.0000000000000000000, 0.08000000000000000200 ) ) ;
#137 = CARTESIAN_POINT ( 'NONE',  ( 0.1499999999999999900, 9.797174393178824000E-018, -0.08000000000000000200 ) ) ;
#138 = DIRECTION ( 'NONE',  ( -1.000000000000000000, -0.0000000000000000000, -0.0000000000000000000 ) ) ;
#139 = LINE ( 'NONE', #140, #226 ) ;
#140 = CARTESIAN_POINT ( 'NONE',  ( 0.1499999999999999900, 9.797174393178824000E-018, -0.08000000000000000200 ) ) ;
#141 = DIRECTION ( 'NONE',  ( -1.000000000000000000, -0.0000000000000000000, -0.0000000000000000000 ) ) ;
#142 = CARTESIAN_POINT ( 'NONE',  ( 0.0000000000000000000, 0.0000000000000000000, 0.08000000000000000200 ) ) ;
#143 = CARTESIAN_POINT ( 'NONE',  ( 0.0000000000000000000, 1.469576158976823700E-017, -0.1200000000000000000 ) ) ;
#144 = CARTESIAN_POINT ( 'NONE',  ( 0.0000000000000000000, 0.0000000000000000000, 0.0000000000000000000 ) ) ;
#145 = CARTESIAN_POINT ( 'NONE',  ( 0.1499999999999999900, 0.0000000000000000000, 0.0000000000000000000 ) ) ;
#146 = DIRECTION ( 'NONE',  ( 1.000000000000000000, 0.0000000000000000000, 0.0000000000000000000 ) ) ;
#147 = DIRECTION ( 'NONE',  ( 0.0000000000000000000, 0.0000000000000000000, -1.000000000000000000 ) ) ;
#148 =( LENGTH_UNIT ( ) NAMED_UNIT ( * ) SI_UNIT ( $, .METRE. ) );
#149 = LENGTH_MEASURE_WITH_UNIT ( LENGTH_MEASURE( 0.02539999999999999900 ), #148 );
#150 =( CONVERSION_BASED_UNIT ( 'INCH', #149 ) LENGTH_UNIT ( ) NAMED_UNIT ( #32 ) );
#151 =( NAMED_UNIT ( * ) PLANE_ANGLE_UNIT ( ) SI_UNIT ( $, .RADIAN. ) );
#152 =( NAMED_UNIT ( * ) SI_UNIT ( $, .STERADIAN. ) SOLID_ANGLE_UNIT ( ) );
#153 = MECHANICAL_CONTEXT ( 'NONE', #31, 'mechanical' ) ;
#154 = SHAPE_DEFINITION_REPRESENTATION ( #252, #28 ) ;
#155 = APPLICATION_PROTOCOL_DEFINITION ( 'international standard', 'config_control_design', 1994, #31 ) ;
#156 = DIRECTION ( 'NONE',  ( 0.0000000000000000000, 0.0000000000000000000, 1.000000000000000000 ) ) ;
#157 = DIRECTION ( 'NONE',  ( 1.000000000000000000, 0.0000000000000000000, 0.0000000000000000000 ) ) ;
#158 = PERSON_AND_ORGANIZATION ( #29, #231 ) ;
#159 = PERSON_AND_ORGANIZATION_ROLE ( 'design_owner' ) ;
#160 = APPLICATION_PROTOCOL_DEFINITION ( 'international standard', 'config_control_design', 1994, #30 ) ;
#161 = PERSON_AND_ORGANIZATION ( #29, #231 ) ;
#162 = APPROVAL_STATUS ( 'not_yet_approved' ) ;
#163 = APPROVAL_ROLE ( '' ) ;
#164 = COORDINATED_UNIVERSAL_TIME_OFFSET ( 8, 0, .BEHIND. ) ;
#165 = CALENDAR_DATE ( 2011, 10, 8 ) ;
#166 = DATE_AND_TIME ( #165, #233 ) ;
#167 = APPROVAL_DATE_TIME ( #166, #18 ) ;
#168 = PERSON_AND_ORGANIZATION ( #29, #231 ) ;
#169 = PERSON_AND_ORGANIZATION_ROLE ( 'creator' ) ;
#170 = COORDINATED_UNIVERSAL_TIME_OFFSET ( 8, 0, .BEHIND. ) ;
#171 = CALENDAR_DATE ( 2011, 10, 8 ) ;
#172 = DATE_AND_TIME ( #171, #235 ) ;
#173 = DATE_TIME_ROLE ( 'creation_date' ) ;
#174 = PERSON_AND_ORGANIZATION ( #29, #231 ) ;
#175 = APPROVAL_STATUS ( 'not_yet_approved' ) ;
#176 = APPROVAL_ROLE ( '' ) ;
#177 = COORDINATED_UNIVERSAL_TIME_OFFSET ( 8, 0, .BEHIND. ) ;
#178 = CALENDAR_DATE ( 2011, 10, 8 ) ;
#179 = DATE_AND_TIME ( #178, #238 ) ;
#180 = APPROVAL_DATE_TIME ( #179, #21 ) ;
#181 = PERSON_AND_ORGANIZATION ( #29, #231 ) ;
#182 = PERSON_AND_ORGANIZATION_ROLE ( 'creator' ) ;
#183 = PERSON_AND_ORGANIZATION ( #29, #231 ) ;
#184 = PERSON_AND_ORGANIZATION_ROLE ( 'design_supplier' ) ;
#185 = SECURITY_CLASSIFICATION_LEVEL ( 'unclassified' ) ;
#186 = PERSON_AND_ORGANIZATION ( #29, #231 ) ;
#187 = PERSON_AND_ORGANIZATION_ROLE ( 'classification_officer' ) ;
#188 = COORDINATED_UNIVERSAL_TIME_OFFSET ( 8, 0, .BEHIND. ) ;
#189 = CALENDAR_DATE ( 2011, 10, 8 ) ;
#190 = DATE_AND_TIME ( #189, #242 ) ;
#191 = DATE_TIME_ROLE ( 'classification_date' ) ;
#192 = PERSON_AND_ORGANIZATION ( #29, #231 ) ;
#193 = APPROVAL_STATUS ( 'not_yet_approved' ) ;
#194 = APPROVAL_ROLE ( '' ) ;
#195 = COORDINATED_UNIVERSAL_TIME_OFFSET ( 8, 0, .BEHIND. ) ;
#196 = CALENDAR_DATE ( 2011, 10, 8 ) ;
#197 = DATE_AND_TIME ( #196, #243 ) ;
#198 = APPROVAL_DATE_TIME ( #197, #26 ) ;
#199 = CC_DESIGN_SECURITY_CLASSIFICATION ( #241, ( #236 ) ) ;
#200 = CIRCLE ( 'NONE', #204, 0.08000000000000000200 ) ;
#201 = AXIS2_PLACEMENT_3D ( 'NONE', #77, #78, #79 ) ;
#202 = CLOSED_SHELL ( 'NONE', ( #12, #11, #10, #13, #14, #15 ) ) ;
#203 = VECTOR ( 'NONE', #81, 39.37007874015748100 ) ;
#204 = AXIS2_PLACEMENT_3D ( 'NONE', #55, #74, #75 ) ;
#205 = CIRCLE ( 'NONE', #209, 0.1200000000000000000 ) ;
#206 = CIRCLE ( 'NONE', #201, 0.08000000000000000200 ) ;
#207 = CIRCLE ( 'NONE', #212, 0.1200000000000000000 ) ;
#208 = VECTOR ( 'NONE', #85, 39.37007874015748100 ) ;
#209 = AXIS2_PLACEMENT_3D ( 'NONE', #82, #83, #84 ) ;
#210 = CIRCLE ( 'NONE', #214, 0.08000000000000000200 ) ;
#211 = CIRCLE ( 'NONE', #216, 0.1200000000000000000 ) ;
#212 = AXIS2_PLACEMENT_3D ( 'NONE', #86, #87, #88 ) ;
#213 = CC_DESIGN_APPROVAL ( #26, ( #241 ) ) ;
#214 = AXIS2_PLACEMENT_3D ( 'NONE', #90, #91, #92 ) ;
#215 = CIRCLE ( 'NONE', #217, 0.08000000000000000200 ) ;
#216 = AXIS2_PLACEMENT_3D ( 'NONE', #95, #96, #97 ) ;
#217 = AXIS2_PLACEMENT_3D ( 'NONE', #100, #101, #102 ) ;
#218 = EDGE_CURVE ( 'NONE', #38, #247, #131, .T. ) ;
#219 = AXIS2_PLACEMENT_3D ( 'NONE', #93, #104, #105 ) ;
#220 = AXIS2_PLACEMENT_3D ( 'NONE', #112, #120, #121 ) ;
#221 = AXIS2_PLACEMENT_3D ( 'NONE', #111, #99, #114 ) ;
#222 = AXIS2_PLACEMENT_3D ( 'NONE', #123, #119, #125 ) ;
#223 = AXIS2_PLACEMENT_3D ( 'NONE', #107, #94, #109 ) ;
#224 = AXIS2_PLACEMENT_3D ( 'NONE', #127, #115, #130 ) ;
#225 = VECTOR ( 'NONE', #138, 39.37007874015748100 ) ;
#226 = VECTOR ( 'NONE', #141, 39.37007874015748100 ) ;
#227 = AXIS2_PLACEMENT_3D ( 'NONE', #145, #146, #147 ) ;
#228 = CIRCLE ( 'NONE', #227, 0.1200000000000000000 ) ;
#229 =( GEOMETRIC_REPRESENTATION_CONTEXT ( 3 ) GLOBAL_UNCERTAINTY_ASSIGNED_CONTEXT ( ( #250 ) ) GLOBAL_UNIT_ASSIGNED_CONTEXT ( ( #150, #151, #152 ) ) REPRESENTATION_CONTEXT ( 'NONE', 'WORKASPACE' ) );
#230 = AXIS2_PLACEMENT_3D ( 'NONE', #144, #156, #157 ) ;
#231 = ORGANIZATION ( 'UNSPECIFIED', 'UNSPECIFIED', '' ) ;
#232 = APPROVAL_PERSON_ORGANIZATION ( #161, #18, #163 ) ;
#233 = LOCAL_TIME ( 9, 6, 56.00000000000000000, #164 ) ;
#234 = CC_DESIGN_APPROVAL ( #18, ( #17 ) ) ;
#235 = LOCAL_TIME ( 9, 6, 56.00000000000000000, #170 ) ;
#236 = PRODUCT_DEFINITION_FORMATION_WITH_SPECIFIED_SOURCE ( 'ANY', '', #33, .NOT_KNOWN. ) ;
#237 = APPROVAL_PERSON_ORGANIZATION ( #174, #21, #176 ) ;
#238 = LOCAL_TIME ( 9, 6, 56.00000000000000000, #177 ) ;
#239 = CC_DESIGN_APPROVAL ( #21, ( #236 ) ) ;
#240 = APPROVAL_PERSON_ORGANIZATION ( #192, #26, #194 ) ;
#241 = SECURITY_CLASSIFICATION ( '', '', #185 ) ;
#242 = LOCAL_TIME ( 9, 6, 56.00000000000000000, #188 ) ;
#243 = LOCAL_TIME ( 9, 6, 56.00000000000000000, #195 ) ;
#244 = EDGE_CURVE ( 'NONE', #245, #37, #139, .T. ) ;
#245 = VERTEX_POINT ( 'NONE', #137 ) ;
#246 = EDGE_CURVE ( 'NONE', #36, #34, #228, .T. ) ;
#247 = VERTEX_POINT ( 'NONE', #142 ) ;
#248 = VERTEX_POINT ( 'NONE', #143 ) ;
#249 = MANIFOLD_SOLID_BREP ( 'Extrude1', #202 ) ;
#250 = UNCERTAINTY_MEASURE_WITH_UNIT (LENGTH_MEASURE( 1.000000000000000100E-005 ), #150, 'distance_accuracy_value', 'NONE');
#251 = DESIGN_CONTEXT ( 'detailed design', #30, 'design' ) ;
#252 = PRODUCT_DEFINITION_SHAPE ( 'NONE', 'NONE',  #17 ) ;
ENDSEC;
END-ISO-10303-21;
