ISO-10303-21;
HEADER;
FILE_DESCRIPTION (( 'STEP AP203' ),
    '1' );
FILE_NAME ('SPC472.STEP',
    '2019-12-26T16:57:11',
    ( '' ),
    ( '' ),
    'SwSTEP 2.0',
    'SolidWorks 2018',
    '' );
FILE_SCHEMA (( 'CONFIG_CONTROL_DESIGN' ));
ENDSEC;

DATA;
#1 = CALENDAR_DATE ( 2019, 26, 12 ) ;
#2 = PERSON_AND_ORGANIZATION ( #65, #181 ) ;
#3 = CARTESIAN_POINT ( 'NONE',  ( -6.000000000000000000, 7.347880794884120722E-16, -9.184850993605136112E-17 ) ) ;
#4 = ORIENTED_EDGE ( 'NONE', *, *, #164, .T. ) ;
#5 = CARTESIAN_POINT ( 'NONE',  ( 0.0000000000000000000, 0.0000000000000000000, -9.184850993605141042E-17 ) ) ;
#6 = CARTESIAN_POINT ( 'NONE',  ( -6.750000000000000000, 8.266365894244634333E-16, 0.0000000000000000000 ) ) ;
#7 = PERSON_AND_ORGANIZATION_ROLE ( 'design_owner' ) ;
#8 = APPROVAL_PERSON_ORGANIZATION ( #162, #69, #73 ) ;
#9 = ADVANCED_FACE ( 'NONE', ( #193 ), #68, .T. ) ;
#10 = APPROVAL ( #156, 'UNSPECIFIED' ) ;
#11 = APPROVAL_STATUS ( 'not_yet_approved' ) ;
#12 = ORIENTED_EDGE ( 'NONE', *, *, #114, .F. ) ;
#13 = CLOSED_SHELL ( 'NONE', ( #145, #131, #98, #9 ) ) ;
#14 = APPROVAL_DATE_TIME ( #150, #118 ) ;
#15 = ORIENTED_EDGE ( 'NONE', *, *, #192, .T. ) ;
#16 = AXIS2_PLACEMENT_3D ( 'NONE', #34, #137, #21 ) ;
#17 = COORDINATED_UNIVERSAL_TIME_OFFSET ( 8, 0, .BEHIND. ) ;
#18 = PERSON_AND_ORGANIZATION ( #65, #181 ) ;
#19 = ORIENTED_EDGE ( 'NONE', *, *, #20, .F. ) ;
#20 = EDGE_CURVE ( 'NONE', #117, #102, #177, .T. ) ;
#21 = DIRECTION ( 'NONE',  ( 0.0000000000000000000, 0.0000000000000000000, -1.000000000000000000 ) ) ;
#22 = CARTESIAN_POINT ( 'NONE',  ( 0.0000000000000000000, 0.0000000000000000000, 0.0000000000000000000 ) ) ;
#23 = ORIENTED_EDGE ( 'NONE', *, *, #121, .F. ) ;
#24 = APPROVAL_PERSON_ORGANIZATION ( #2, #10, #74 ) ;
#25 = DIRECTION ( 'NONE',  ( -1.000000000000000000, 1.224646799147352221E-16, 0.0000000000000000000 ) ) ;
#26 = CIRCLE ( 'NONE', #136, 6.000000000000000000 ) ;
#27 = CARTESIAN_POINT ( 'NONE',  ( -6.750000000000000000, 8.266365894244634333E-16, 0.0000000000000000000 ) ) ;
#28 = APPLICATION_PROTOCOL_DEFINITION ( 'international standard', 'config_control_design', 1994, #126 ) ;
#29 = CC_DESIGN_PERSON_AND_ORGANIZATION_ASSIGNMENT ( #105, #7, ( #166 ) ) ;
#30 = ORIENTED_EDGE ( 'NONE', *, *, #89, .F. ) ;
#31 = DATE_AND_TIME ( #41, #77 ) ;
#32 = ADVANCED_BREP_SHAPE_REPRESENTATION ( 'SPC472', ( #49, #100 ), #151 ) ;
#33 = EDGE_CURVE ( 'NONE', #133, #130, #53, .T. ) ;
#34 = CARTESIAN_POINT ( 'NONE',  ( 6.750000000000000000, 0.0000000000000000000, 0.0000000000000000000 ) ) ;
#35 = DIRECTION ( 'NONE',  ( -0.0000000000000000000, -0.0000000000000000000, 1.000000000000000000 ) ) ;
#36 = FACE_OUTER_BOUND ( 'NONE', #47, .T. ) ;
#37 = CC_DESIGN_DATE_AND_TIME_ASSIGNMENT ( #31, #39, ( #157 ) ) ;
#38 = CARTESIAN_POINT ( 'NONE',  ( 6.000000000000000000, 0.0000000000000000000, -9.184850993605136112E-17 ) ) ;
#39 = DATE_TIME_ROLE ( 'classification_date' ) ;
#40 = DATE_TIME_ROLE ( 'creation_date' ) ;
#41 = CALENDAR_DATE ( 2019, 26, 12 ) ;
#42 = DIRECTION ( 'NONE',  ( 1.000000000000000000, 0.0000000000000000000, 0.0000000000000000000 ) ) ;
#43 = TOROIDAL_SURFACE ( 'NONE', #93, 6.750000000000000000, 0.7499999999999993339 ) ;
#44 = COORDINATED_UNIVERSAL_TIME_OFFSET ( 8, 0, .BEHIND. ) ;
#45 = DATE_AND_TIME ( #1, #67 ) ;
#46 = AXIS2_PLACEMENT_3D ( 'NONE', #6, #52, #25 ) ;
#47 = EDGE_LOOP ( 'NONE', ( #175, #187, #180, #63 ) ) ;
#48 = CC_DESIGN_SECURITY_CLASSIFICATION ( #157, ( #125 ) ) ;
#49 = MANIFOLD_SOLID_BREP ( 'Revolve1', #13 ) ;
#50 = PRODUCT_DEFINITION_SHAPE ( 'NONE', 'NONE',  #143 ) ;
#51 = DIRECTION ( 'NONE',  ( -0.0000000000000000000, -0.0000000000000000000, 1.000000000000000000 ) ) ;
#52 = DIRECTION ( 'NONE',  ( 1.224646799147353207E-16, 1.000000000000000000, 0.0000000000000000000 ) ) ;
#53 = CIRCLE ( 'NONE', #189, 6.000000000000000000 ) ;
#54 = DIRECTION ( 'NONE',  ( -0.0000000000000000000, -0.0000000000000000000, 1.000000000000000000 ) ) ;
#55 = PERSON_AND_ORGANIZATION_ROLE ( 'design_supplier' ) ;
#56 = DIRECTION ( 'NONE',  ( -0.0000000000000000000, -0.0000000000000000000, 1.000000000000000000 ) ) ;
#57 = MECHANICAL_CONTEXT ( 'NONE', #126, 'mechanical' ) ;
#58 = AXIS2_PLACEMENT_3D ( 'NONE', #144, #56, #42 ) ;
#59 = SECURITY_CLASSIFICATION_LEVEL ( 'unclassified' ) ;
#60 = LOCAL_TIME ( 8, 57, 11.00000000000000000, #90 ) ;
#61 = DIRECTION ( 'NONE',  ( -0.0000000000000000000, -0.0000000000000000000, 1.000000000000000000 ) ) ;
#62 = CALENDAR_DATE ( 2019, 26, 12 ) ;
#63 = ORIENTED_EDGE ( 'NONE', *, *, #192, .F. ) ;
#64 = CIRCLE ( 'NONE', #16, 0.7499999999999993339 ) ;
#65 = PERSON ( 'UNSPECIFIED', 'UNSPECIFIED', 'UNSPECIFIED', ('UNSPECIFIED'), ('UNSPECIFIED'), ('UNSPECIFIED') ) ;
#66 = APPROVAL_DATE_TIME ( #123, #69 ) ;
#67 = LOCAL_TIME ( 8, 57, 11.00000000000000000, #179 ) ;
#68 = TOROIDAL_SURFACE ( 'NONE', #132, 6.750000000000000000, 0.7499999999999993339 ) ;
#69 = APPROVAL ( #159, 'UNSPECIFIED' ) ;
#70 = APPROVAL_DATE_TIME ( #167, #10 ) ;
#71 = DIRECTION ( 'NONE',  ( 1.000000000000000000, 0.0000000000000000000, 0.0000000000000000000 ) ) ;
#72 = CIRCLE ( 'NONE', #128, 0.7499999999999997780 ) ;
#73 = APPROVAL_ROLE ( '' ) ;
#74 = APPROVAL_ROLE ( '' ) ;
#75 = DIRECTION ( 'NONE',  ( 1.000000000000000000, 0.0000000000000000000, 0.0000000000000000000 ) ) ;
#76 = FACE_OUTER_BOUND ( 'NONE', #106, .T. ) ;
#77 = LOCAL_TIME ( 8, 57, 11.00000000000000000, #17 ) ;
#78 = COORDINATED_UNIVERSAL_TIME_OFFSET ( 8, 0, .BEHIND. ) ;
#79 = DESIGN_CONTEXT ( 'detailed design', #188, 'design' ) ;
#80 = CARTESIAN_POINT ( 'NONE',  ( 6.750000000000000000, 0.0000000000000000000, 0.0000000000000000000 ) ) ;
#81 = CARTESIAN_POINT ( 'NONE',  ( 0.0000000000000000000, 0.0000000000000000000, 0.0000000000000000000 ) ) ;
#82 = CARTESIAN_POINT ( 'NONE',  ( 7.500000000000000000, 0.0000000000000000000, 0.0000000000000000000 ) ) ;
#83 = DIRECTION ( 'NONE',  ( 1.000000000000000000, 0.0000000000000000000, 0.0000000000000000000 ) ) ;
#84 = PERSON_AND_ORGANIZATION_ROLE ( 'creator' ) ;
#85 = PERSON_AND_ORGANIZATION ( #65, #181 ) ;
#86 =( NAMED_UNIT ( * ) PLANE_ANGLE_UNIT ( ) SI_UNIT ( $, .RADIAN. ) );
#87 =( NAMED_UNIT ( * ) SI_UNIT ( $, .STERADIAN. ) SOLID_ANGLE_UNIT ( ) );
#88 = ORIENTED_EDGE ( 'NONE', *, *, #114, .T. ) ;
#89 = EDGE_CURVE ( 'NONE', #117, #133, #176, .T. ) ;
#90 = COORDINATED_UNIVERSAL_TIME_OFFSET ( 8, 0, .BEHIND. ) ;
#91 = ORIENTED_EDGE ( 'NONE', *, *, #33, .F. ) ;
#92 = EDGE_CURVE ( 'NONE', #102, #130, #64, .T. ) ;
#93 = AXIS2_PLACEMENT_3D ( 'NONE', #97, #61, #191 ) ;
#94 = CALENDAR_DATE ( 2019, 26, 12 ) ;
#95 = CC_DESIGN_PERSON_AND_ORGANIZATION_ASSIGNMENT ( #190, #55, ( #125 ) ) ;
#96 = APPROVAL_ROLE ( '' ) ;
#97 = CARTESIAN_POINT ( 'NONE',  ( 0.0000000000000000000, 0.0000000000000000000, 0.0000000000000000000 ) ) ;
#98 = ADVANCED_FACE ( 'NONE', ( #127 ), #138, .T. ) ;
#99 = APPLICATION_PROTOCOL_DEFINITION ( 'international standard', 'config_control_design', 1994, #188 ) ;
#100 = AXIS2_PLACEMENT_3D ( 'NONE', #116, #142, #140 ) ;
#101 = CIRCLE ( 'NONE', #178, 0.7499999999999993339 ) ;
#102 = VERTEX_POINT ( 'NONE', #82 ) ;
#103 = PERSON_AND_ORGANIZATION ( #65, #181 ) ;
#104 = AXIS2_PLACEMENT_3D ( 'NONE', #184, #170, #71 ) ;
#105 = PERSON_AND_ORGANIZATION ( #65, #181 ) ;
#106 = EDGE_LOOP ( 'NONE', ( #30, #139, #165, #91 ) ) ;
#107 = CC_DESIGN_PERSON_AND_ORGANIZATION_ASSIGNMENT ( #103, #115, ( #157 ) ) ;
#108 = DIRECTION ( 'NONE',  ( 0.0000000000000000000, -1.000000000000000000, 0.0000000000000000000 ) ) ;
#109 = AXIS2_PLACEMENT_3D ( 'NONE', #22, #35, #83 ) ;
#110 = TOROIDAL_SURFACE ( 'NONE', #58, 6.750000000000000000, 0.7499999999999993339 ) ;
#111 = DIRECTION ( 'NONE',  ( 1.000000000000000000, 0.0000000000000000000, 0.0000000000000000000 ) ) ;
#112 = DIRECTION ( 'NONE',  ( -0.0000000000000000000, -0.0000000000000000000, 1.000000000000000000 ) ) ;
#113 = LOCAL_TIME ( 8, 57, 11.00000000000000000, #44 ) ;
#114 = EDGE_CURVE ( 'NONE', #130, #102, #101, .T. ) ;
#115 = PERSON_AND_ORGANIZATION_ROLE ( 'classification_officer' ) ;
#116 = CARTESIAN_POINT ( 'NONE',  ( 0.0000000000000000000, 0.0000000000000000000, 0.0000000000000000000 ) ) ;
#117 = VERTEX_POINT ( 'NONE', #124 ) ;
#118 = APPROVAL ( #11, 'UNSPECIFIED' ) ;
#119 = CC_DESIGN_APPROVAL ( #10, ( #125 ) ) ;
#120 = CIRCLE ( 'NONE', #109, 7.500000000000000000 ) ;
#121 = EDGE_CURVE ( 'NONE', #102, #117, #120, .T. ) ;
#122 = DIRECTION ( 'NONE',  ( 0.0000000000000000000, 0.0000000000000000000, -1.000000000000000000 ) ) ;
#123 = DATE_AND_TIME ( #173, #60 ) ;
#124 = CARTESIAN_POINT ( 'NONE',  ( -7.500000000000000000, 9.184850993605147944E-16, 0.0000000000000000000 ) ) ;
#125 = PRODUCT_DEFINITION_FORMATION_WITH_SPECIFIED_SOURCE ( 'ANY', '', #166, .NOT_KNOWN. ) ;
#126 = APPLICATION_CONTEXT ( 'configuration controlled 3d designs of mechanical parts and assemblies' ) ;
#127 = FACE_OUTER_BOUND ( 'NONE', #168, .T. ) ;
#128 = AXIS2_PLACEMENT_3D ( 'NONE', #27, #141, #160 ) ;
#129 = PERSON_AND_ORGANIZATION_ROLE ( 'creator' ) ;
#130 = VERTEX_POINT ( 'NONE', #38 ) ;
#131 = ADVANCED_FACE ( 'NONE', ( #36 ), #110, .T. ) ;
#132 = AXIS2_PLACEMENT_3D ( 'NONE', #81, #51, #152 ) ;
#133 = VERTEX_POINT ( 'NONE', #3 ) ;
#134 = AXIS2_PLACEMENT_3D ( 'NONE', #185, #54, #182 ) ;
#135 = SHAPE_DEFINITION_REPRESENTATION ( #50, #32 ) ;
#136 = AXIS2_PLACEMENT_3D ( 'NONE', #158, #112, #75 ) ;
#137 = DIRECTION ( 'NONE',  ( 0.0000000000000000000, -1.000000000000000000, 0.0000000000000000000 ) ) ;
#138 = TOROIDAL_SURFACE ( 'NONE', #134, 6.750000000000000000, 0.7499999999999993339 ) ;
#139 = ORIENTED_EDGE ( 'NONE', *, *, #20, .T. ) ;
#140 = DIRECTION ( 'NONE',  ( 1.000000000000000000, 0.0000000000000000000, 0.0000000000000000000 ) ) ;
#141 = DIRECTION ( 'NONE',  ( 1.224646799147353207E-16, 1.000000000000000000, 0.0000000000000000000 ) ) ;
#142 = DIRECTION ( 'NONE',  ( 0.0000000000000000000, 0.0000000000000000000, 1.000000000000000000 ) ) ;
#143 = PRODUCT_DEFINITION ( 'UNKNOWN', '', #125, #79 ) ;
#144 = CARTESIAN_POINT ( 'NONE',  ( 0.0000000000000000000, 0.0000000000000000000, 0.0000000000000000000 ) ) ;
#145 = ADVANCED_FACE ( 'NONE', ( #76 ), #43, .T. ) ;
#146 = EDGE_LOOP ( 'NONE', ( #19, #172, #161, #88 ) ) ;
#147 = CC_DESIGN_PERSON_AND_ORGANIZATION_ASSIGNMENT ( #18, #84, ( #125 ) ) ;
#148 = UNCERTAINTY_MEASURE_WITH_UNIT (LENGTH_MEASURE( 1.000000000000000082E-05 ), #155, 'distance_accuracy_value', 'NONE');
#149 = CC_DESIGN_PERSON_AND_ORGANIZATION_ASSIGNMENT ( #85, #129, ( #143 ) ) ;
#150 = DATE_AND_TIME ( #62, #163 ) ;
#151 =( GEOMETRIC_REPRESENTATION_CONTEXT ( 3 ) GLOBAL_UNCERTAINTY_ASSIGNED_CONTEXT ( ( #148 ) ) GLOBAL_UNIT_ASSIGNED_CONTEXT ( ( #155, #86, #87 ) ) REPRESENTATION_CONTEXT ( 'NONE', 'WORKASPACE' ) );
#152 = DIRECTION ( 'NONE',  ( 1.000000000000000000, 0.0000000000000000000, 0.0000000000000000000 ) ) ;
#153 = PRODUCT_RELATED_PRODUCT_CATEGORY ( 'detail', '', ( #166 ) ) ;
#154 = DIRECTION ( 'NONE',  ( -0.0000000000000000000, -0.0000000000000000000, 1.000000000000000000 ) ) ;
#155 =( LENGTH_UNIT ( ) NAMED_UNIT ( * ) SI_UNIT ( .MILLI., .METRE. ) );
#156 = APPROVAL_STATUS ( 'not_yet_approved' ) ;
#157 = SECURITY_CLASSIFICATION ( '', '', #59 ) ;
#158 = CARTESIAN_POINT ( 'NONE',  ( 0.0000000000000000000, 0.0000000000000000000, -9.184850993605141042E-17 ) ) ;
#159 = APPROVAL_STATUS ( 'not_yet_approved' ) ;
#160 = DIRECTION ( 'NONE',  ( -1.000000000000000000, 1.224646799147352221E-16, 0.0000000000000000000 ) ) ;
#161 = ORIENTED_EDGE ( 'NONE', *, *, #33, .T. ) ;
#162 = PERSON_AND_ORGANIZATION ( #65, #181 ) ;
#163 = LOCAL_TIME ( 8, 57, 11.00000000000000000, #78 ) ;
#164 = EDGE_CURVE ( 'NONE', #133, #117, #72, .T. ) ;
#165 = ORIENTED_EDGE ( 'NONE', *, *, #92, .T. ) ;
#166 = PRODUCT ( 'SPC472', 'SPC472', '', ( #57 ) ) ;
#167 = DATE_AND_TIME ( #94, #113 ) ;
#168 = EDGE_LOOP ( 'NONE', ( #23, #12, #15, #4 ) ) ;
#169 = CC_DESIGN_APPROVAL ( #69, ( #157 ) ) ;
#170 = DIRECTION ( 'NONE',  ( -0.0000000000000000000, -0.0000000000000000000, 1.000000000000000000 ) ) ;
#171 = APPROVAL_PERSON_ORGANIZATION ( #186, #118, #96 ) ;
#172 = ORIENTED_EDGE ( 'NONE', *, *, #164, .F. ) ;
#173 = CALENDAR_DATE ( 2019, 26, 12 ) ;
#174 = CC_DESIGN_APPROVAL ( #118, ( #143 ) ) ;
#175 = ORIENTED_EDGE ( 'NONE', *, *, #92, .F. ) ;
#176 = CIRCLE ( 'NONE', #46, 0.7499999999999997780 ) ;
#177 = CIRCLE ( 'NONE', #104, 7.500000000000000000 ) ;
#178 = AXIS2_PLACEMENT_3D ( 'NONE', #80, #108, #122 ) ;
#179 = COORDINATED_UNIVERSAL_TIME_OFFSET ( 8, 0, .BEHIND. ) ;
#180 = ORIENTED_EDGE ( 'NONE', *, *, #89, .T. ) ;
#181 = ORGANIZATION ( 'UNSPECIFIED', 'UNSPECIFIED', '' ) ;
#182 = DIRECTION ( 'NONE',  ( 1.000000000000000000, 0.0000000000000000000, 0.0000000000000000000 ) ) ;
#183 = CC_DESIGN_DATE_AND_TIME_ASSIGNMENT ( #45, #40, ( #143 ) ) ;
#184 = CARTESIAN_POINT ( 'NONE',  ( 0.0000000000000000000, 0.0000000000000000000, 0.0000000000000000000 ) ) ;
#185 = CARTESIAN_POINT ( 'NONE',  ( 0.0000000000000000000, 0.0000000000000000000, 0.0000000000000000000 ) ) ;
#186 = PERSON_AND_ORGANIZATION ( #65, #181 ) ;
#187 = ORIENTED_EDGE ( 'NONE', *, *, #121, .T. ) ;
#188 = APPLICATION_CONTEXT ( 'configuration controlled 3d designs of mechanical parts and assemblies' ) ;
#189 = AXIS2_PLACEMENT_3D ( 'NONE', #5, #154, #111 ) ;
#190 = PERSON_AND_ORGANIZATION ( #65, #181 ) ;
#191 = DIRECTION ( 'NONE',  ( 1.000000000000000000, 0.0000000000000000000, 0.0000000000000000000 ) ) ;
#192 = EDGE_CURVE ( 'NONE', #130, #133, #26, .T. ) ;
#193 = FACE_OUTER_BOUND ( 'NONE', #146, .T. ) ;
ENDSEC;
END-ISO-10303-21;
