ISO-10303-21;
HEADER;
FILE_DESCRIPTION (( 'STEP AP203' ),
    '1' );
FILE_NAME ('SPC208.STEP',
    '2019-12-26T16:55:01',
    ( '' ),
    ( '' ),
    'SwSTEP 2.0',
    'SolidWorks 2018',
    '' );
FILE_SCHEMA (( 'CONFIG_CONTROL_DESIGN' ));
ENDSEC;

DATA;
#1 = DIRECTION ( 'NONE',  ( 1.000000000000000000, 0.0000000000000000000, 0.0000000000000000000 ) ) ;
#2 = ORIENTED_EDGE ( 'NONE', *, *, #16, .F. ) ;
#3 = APPROVAL_ROLE ( '' ) ;
#4 = DIRECTION ( 'NONE',  ( -0.0000000000000000000, -0.0000000000000000000, 1.000000000000000000 ) ) ;
#5 = FACE_OUTER_BOUND ( 'NONE', #10, .T. ) ;
#6 = CC_DESIGN_APPROVAL ( #144, ( #58 ) ) ;
#7 = PRODUCT_RELATED_PRODUCT_CATEGORY ( 'detail', '', ( #153 ) ) ;
#8 = LOCAL_TIME ( 8, 55, 1.000000000000000000, #60 ) ;
#9 = ORIENTED_EDGE ( 'NONE', *, *, #28, .T. ) ;
#10 = EDGE_LOOP ( 'NONE', ( #118, #97, #122, #133 ) ) ;
#11 = CARTESIAN_POINT ( 'NONE',  ( -0.1739999999999999325, 2.130885430516393868E-17, 0.0000000000000000000 ) ) ;
#12 = DIRECTION ( 'NONE',  ( 0.0000000000000000000, 0.0000000000000000000, -1.000000000000000000 ) ) ;
#13 = CC_DESIGN_SECURITY_CLASSIFICATION ( #34, ( #82 ) ) ;
#14 = DIRECTION ( 'NONE',  ( 1.000000000000000000, 0.0000000000000000000, 0.0000000000000000000 ) ) ;
#15 = CARTESIAN_POINT ( 'NONE',  ( 0.0000000000000000000, 0.0000000000000000000, -4.286263797015729816E-18 ) ) ;
#16 = EDGE_CURVE ( 'NONE', #155, #41, #32, .T. ) ;
#17 = PERSON_AND_ORGANIZATION ( #30, #24 ) ;
#18 =( LENGTH_UNIT ( ) NAMED_UNIT ( * ) SI_UNIT ( $, .METRE. ) );
#19 = DIRECTION ( 'NONE',  ( 1.224646799147353207E-16, 1.000000000000000000, 0.0000000000000000000 ) ) ;
#20 = DESIGN_CONTEXT ( 'detailed design', #23, 'design' ) ;
#21 = DIRECTION ( 'NONE',  ( 0.0000000000000000000, 0.0000000000000000000, 1.000000000000000000 ) ) ;
#22 = CIRCLE ( 'NONE', #121, 0.1739999999999999325 ) ;
#23 = APPLICATION_CONTEXT ( 'configuration controlled 3d designs of mechanical parts and assemblies' ) ;
#24 = ORGANIZATION ( 'UNSPECIFIED', 'UNSPECIFIED', '' ) ;
#25 = AXIS2_PLACEMENT_3D ( 'NONE', #48, #55, #98 ) ;
#26 = EDGE_CURVE ( 'NONE', #41, #70, #188, .T. ) ;
#27 = CARTESIAN_POINT ( 'NONE',  ( 0.0000000000000000000, 0.0000000000000000000, 0.0000000000000000000 ) ) ;
#28 = EDGE_CURVE ( 'NONE', #70, #41, #22, .T. ) ;
#29 = CALENDAR_DATE ( 2019, 26, 12 ) ;
#30 = PERSON ( 'UNSPECIFIED', 'UNSPECIFIED', 'UNSPECIFIED', ('UNSPECIFIED'), ('UNSPECIFIED'), ('UNSPECIFIED') ) ;
#31 = DIRECTION ( 'NONE',  ( -0.0000000000000000000, -0.0000000000000000000, 1.000000000000000000 ) ) ;
#32 = CIRCLE ( 'NONE', #151, 0.03499999999999994088 ) ;
#33 = APPROVAL_PERSON_ORGANIZATION ( #17, #187, #170 ) ;
#34 = SECURITY_CLASSIFICATION ( '', '', #169 ) ;
#35 = DIRECTION ( 'NONE',  ( -1.000000000000000000, 1.224646799147353454E-16, 0.0000000000000000000 ) ) ;
#36 = PERSON_AND_ORGANIZATION ( #30, #24 ) ;
#37 = TOROIDAL_SURFACE ( 'NONE', #75, 0.1389999999999999847, 0.03499999999999994088 ) ;
#38 = PERSON_AND_ORGANIZATION_ROLE ( 'design_supplier' ) ;
#39 = UNCERTAINTY_MEASURE_WITH_UNIT (LENGTH_MEASURE( 1.000000000000000082E-05 ), #101, 'distance_accuracy_value', 'NONE');
#40 = CC_DESIGN_PERSON_AND_ORGANIZATION_ASSIGNMENT ( #149, #114, ( #153 ) ) ;
#41 = VERTEX_POINT ( 'NONE', #123 ) ;
#42 = DIRECTION ( 'NONE',  ( 0.0000000000000000000, 0.0000000000000000000, -1.000000000000000000 ) ) ;
#43 = ADVANCED_FACE ( 'NONE', ( #161 ), #50, .T. ) ;
#44 = CIRCLE ( 'NONE', #131, 0.1040000000000000369 ) ;
#45 = CC_DESIGN_PERSON_AND_ORGANIZATION_ASSIGNMENT ( #103, #51, ( #58 ) ) ;
#46 = MANIFOLD_SOLID_BREP ( 'Revolve1', #146 ) ;
#47 = DATE_AND_TIME ( #110, #132 ) ;
#48 = CARTESIAN_POINT ( 'NONE',  ( 0.0000000000000000000, 0.0000000000000000000, 0.0000000000000000000 ) ) ;
#49 = CC_DESIGN_DATE_AND_TIME_ASSIGNMENT ( #184, #140, ( #34 ) ) ;
#50 = TOROIDAL_SURFACE ( 'NONE', #156, 0.1389999999999999847, 0.03499999999999994088 ) ;
#51 = PERSON_AND_ORGANIZATION_ROLE ( 'creator' ) ;
#52 = EDGE_CURVE ( 'NONE', #167, #155, #44, .T. ) ;
#53 =( NAMED_UNIT ( * ) SI_UNIT ( $, .STERADIAN. ) SOLID_ANGLE_UNIT ( ) );
#54 = ORIENTED_EDGE ( 'NONE', *, *, #52, .F. ) ;
#55 = DIRECTION ( 'NONE',  ( -0.0000000000000000000, -0.0000000000000000000, 1.000000000000000000 ) ) ;
#56 = LENGTH_MEASURE_WITH_UNIT ( LENGTH_MEASURE( 0.02539999999999999897 ), #18 );
#57 = APPROVAL_DATE_TIME ( #71, #73 ) ;
#58 = PRODUCT_DEFINITION ( 'UNKNOWN', '', #82, #20 ) ;
#59 = CC_DESIGN_DATE_AND_TIME_ASSIGNMENT ( #84, #124, ( #58 ) ) ;
#60 = COORDINATED_UNIVERSAL_TIME_OFFSET ( 8, 0, .BEHIND. ) ;
#61 = DIRECTION ( 'NONE',  ( 1.000000000000000000, 0.0000000000000000000, 0.0000000000000000000 ) ) ;
#62 = CARTESIAN_POINT ( 'NONE',  ( 0.0000000000000000000, 0.0000000000000000000, 0.0000000000000000000 ) ) ;
#63 = CARTESIAN_POINT ( 'NONE',  ( -0.1389999999999999847, 1.702259050814820886E-17, 0.0000000000000000000 ) ) ;
#64 = ADVANCED_FACE ( 'NONE', ( #134 ), #37, .T. ) ;
#65 = EDGE_CURVE ( 'NONE', #41, #155, #141, .T. ) ;
#66 = CARTESIAN_POINT ( 'NONE',  ( 0.0000000000000000000, 0.0000000000000000000, 0.0000000000000000000 ) ) ;
#67 = APPROVAL_ROLE ( '' ) ;
#68 = APPROVAL_PERSON_ORGANIZATION ( #145, #73, #3 ) ;
#69 = CARTESIAN_POINT ( 'NONE',  ( -0.1389999999999999847, 1.702259050814820886E-17, 0.0000000000000000000 ) ) ;
#70 = VERTEX_POINT ( 'NONE', #11 ) ;
#71 = DATE_AND_TIME ( #143, #72 ) ;
#72 = LOCAL_TIME ( 8, 55, 1.000000000000000000, #147 ) ;
#73 = APPROVAL ( #186, 'UNSPECIFIED' ) ;
#74 = COORDINATED_UNIVERSAL_TIME_OFFSET ( 8, 0, .BEHIND. ) ;
#75 = AXIS2_PLACEMENT_3D ( 'NONE', #180, #196, #14 ) ;
#76 = APPROVAL_DATE_TIME ( #47, #144 ) ;
#77 = PERSON_AND_ORGANIZATION ( #30, #24 ) ;
#78 = DIRECTION ( 'NONE',  ( 1.000000000000000000, 0.0000000000000000000, 0.0000000000000000000 ) ) ;
#79 = CC_DESIGN_PERSON_AND_ORGANIZATION_ASSIGNMENT ( #36, #87, ( #34 ) ) ;
#80 = ADVANCED_BREP_SHAPE_REPRESENTATION ( 'SPC208', ( #46, #176 ), #135 ) ;
#81 = ORIENTED_EDGE ( 'NONE', *, *, #107, .T. ) ;
#82 = PRODUCT_DEFINITION_FORMATION_WITH_SPECIFIED_SOURCE ( 'ANY', '', #153, .NOT_KNOWN. ) ;
#83 = APPLICATION_PROTOCOL_DEFINITION ( 'international standard', 'config_control_design', 1994, #150 ) ;
#84 = DATE_AND_TIME ( #104, #8 ) ;
#85 = EDGE_LOOP ( 'NONE', ( #163, #2, #90, #81 ) ) ;
#86 = DIRECTION ( 'NONE',  ( -1.000000000000000000, 1.224646799147353454E-16, 0.0000000000000000000 ) ) ;
#87 = PERSON_AND_ORGANIZATION_ROLE ( 'classification_officer' ) ;
#88 = CARTESIAN_POINT ( 'NONE',  ( 0.0000000000000000000, 0.0000000000000000000, -4.286263797015729816E-18 ) ) ;
#89 = TOROIDAL_SURFACE ( 'NONE', #25, 0.1389999999999999847, 0.03499999999999994088 ) ;
#90 = ORIENTED_EDGE ( 'NONE', *, *, #158, .T. ) ;
#91 = AXIS2_PLACEMENT_3D ( 'NONE', #66, #175, #61 ) ;
#92 = DIRECTION ( 'NONE',  ( -0.0000000000000000000, -0.0000000000000000000, 1.000000000000000000 ) ) ;
#93 = ORIENTED_EDGE ( 'NONE', *, *, #158, .F. ) ;
#94 = DIRECTION ( 'NONE',  ( 1.000000000000000000, 0.0000000000000000000, 0.0000000000000000000 ) ) ;
#95 = AXIS2_PLACEMENT_3D ( 'NONE', #69, #19, #86 ) ;
#96 = DIMENSIONAL_EXPONENTS ( 1.000000000000000000, 0.0000000000000000000, 0.0000000000000000000, 0.0000000000000000000, 0.0000000000000000000, 0.0000000000000000000, 0.0000000000000000000 ) ;
#97 = ORIENTED_EDGE ( 'NONE', *, *, #107, .F. ) ;
#98 = DIRECTION ( 'NONE',  ( 1.000000000000000000, 0.0000000000000000000, 0.0000000000000000000 ) ) ;
#99 = MECHANICAL_CONTEXT ( 'NONE', #150, 'mechanical' ) ;
#100 = ORIENTED_EDGE ( 'NONE', *, *, #65, .F. ) ;
#101 =( CONVERSION_BASED_UNIT ( 'INCH', #56 ) LENGTH_UNIT ( ) NAMED_UNIT ( #96 ) );
#102 = CC_DESIGN_PERSON_AND_ORGANIZATION_ASSIGNMENT ( #113, #38, ( #82 ) ) ;
#103 = PERSON_AND_ORGANIZATION ( #30, #24 ) ;
#104 = CALENDAR_DATE ( 2019, 26, 12 ) ;
#105 = DIRECTION ( 'NONE',  ( -0.0000000000000000000, -0.0000000000000000000, 1.000000000000000000 ) ) ;
#106 = DIRECTION ( 'NONE',  ( 0.0000000000000000000, -1.000000000000000000, 0.0000000000000000000 ) ) ;
#107 = EDGE_CURVE ( 'NONE', #167, #70, #185, .T. ) ;
#108 = ORIENTED_EDGE ( 'NONE', *, *, #26, .T. ) ;
#109 = ADVANCED_FACE ( 'NONE', ( #190 ), #159, .T. ) ;
#110 = CALENDAR_DATE ( 2019, 26, 12 ) ;
#111 = EDGE_CURVE ( 'NONE', #70, #167, #115, .T. ) ;
#112 = DIRECTION ( 'NONE',  ( 1.000000000000000000, 0.0000000000000000000, 0.0000000000000000000 ) ) ;
#113 = PERSON_AND_ORGANIZATION ( #30, #24 ) ;
#114 = PERSON_AND_ORGANIZATION_ROLE ( 'design_owner' ) ;
#115 = CIRCLE ( 'NONE', #95, 0.03499999999999994782 ) ;
#116 = AXIS2_PLACEMENT_3D ( 'NONE', #27, #191, #183 ) ;
#117 = APPROVAL_DATE_TIME ( #194, #187 ) ;
#118 = ORIENTED_EDGE ( 'NONE', *, *, #28, .F. ) ;
#119 = CC_DESIGN_APPROVAL ( #187, ( #82 ) ) ;
#120 = CIRCLE ( 'NONE', #127, 0.1040000000000000369 ) ;
#121 = AXIS2_PLACEMENT_3D ( 'NONE', #162, #92, #160 ) ;
#122 = ORIENTED_EDGE ( 'NONE', *, *, #52, .T. ) ;
#123 = CARTESIAN_POINT ( 'NONE',  ( 0.1739999999999999325, 0.0000000000000000000, 0.0000000000000000000 ) ) ;
#124 = DATE_TIME_ROLE ( 'creation_date' ) ;
#125 = LOCAL_TIME ( 8, 55, 1.000000000000000000, #171 ) ;
#126 = SHAPE_DEFINITION_REPRESENTATION ( #172, #80 ) ;
#127 = AXIS2_PLACEMENT_3D ( 'NONE', #88, #4, #1 ) ;
#128 = APPROVAL_STATUS ( 'not_yet_approved' ) ;
#129 = PERSON_AND_ORGANIZATION_ROLE ( 'creator' ) ;
#130 = ORIENTED_EDGE ( 'NONE', *, *, #111, .F. ) ;
#131 = AXIS2_PLACEMENT_3D ( 'NONE', #15, #105, #94 ) ;
#132 = LOCAL_TIME ( 8, 55, 1.000000000000000000, #166 ) ;
#133 = ORIENTED_EDGE ( 'NONE', *, *, #16, .T. ) ;
#134 = FACE_OUTER_BOUND ( 'NONE', #173, .T. ) ;
#135 =( GEOMETRIC_REPRESENTATION_CONTEXT ( 3 ) GLOBAL_UNCERTAINTY_ASSIGNED_CONTEXT ( ( #39 ) ) GLOBAL_UNIT_ASSIGNED_CONTEXT ( ( #101, #139, #53 ) ) REPRESENTATION_CONTEXT ( 'NONE', 'WORKASPACE' ) );
#136 = CARTESIAN_POINT ( 'NONE',  ( 0.1389999999999999847, 0.0000000000000000000, 0.0000000000000000000 ) ) ;
#137 = AXIS2_PLACEMENT_3D ( 'NONE', #63, #142, #35 ) ;
#138 = APPROVAL_PERSON_ORGANIZATION ( #182, #144, #67 ) ;
#139 =( NAMED_UNIT ( * ) PLANE_ANGLE_UNIT ( ) SI_UNIT ( $, .RADIAN. ) );
#140 = DATE_TIME_ROLE ( 'classification_date' ) ;
#141 = CIRCLE ( 'NONE', #189, 0.03499999999999994088 ) ;
#142 = DIRECTION ( 'NONE',  ( 1.224646799147353207E-16, 1.000000000000000000, 0.0000000000000000000 ) ) ;
#143 = CALENDAR_DATE ( 2019, 26, 12 ) ;
#144 = APPROVAL ( #128, 'UNSPECIFIED' ) ;
#145 = PERSON_AND_ORGANIZATION ( #30, #24 ) ;
#146 = CLOSED_SHELL ( 'NONE', ( #43, #64, #109, #178 ) ) ;
#147 = COORDINATED_UNIVERSAL_TIME_OFFSET ( 8, 0, .BEHIND. ) ;
#148 = ORIENTED_EDGE ( 'NONE', *, *, #65, .T. ) ;
#149 = PERSON_AND_ORGANIZATION ( #30, #24 ) ;
#150 = APPLICATION_CONTEXT ( 'configuration controlled 3d designs of mechanical parts and assemblies' ) ;
#151 = AXIS2_PLACEMENT_3D ( 'NONE', #136, #177, #42 ) ;
#152 = APPROVAL_STATUS ( 'not_yet_approved' ) ;
#153 = PRODUCT ( 'SPC208', 'SPC208', '', ( #99 ) ) ;
#154 = APPLICATION_PROTOCOL_DEFINITION ( 'international standard', 'config_control_design', 1994, #23 ) ;
#155 = VERTEX_POINT ( 'NONE', #168 ) ;
#156 = AXIS2_PLACEMENT_3D ( 'NONE', #62, #31, #78 ) ;
#157 = CALENDAR_DATE ( 2019, 26, 12 ) ;
#158 = EDGE_CURVE ( 'NONE', #155, #167, #120, .T. ) ;
#159 = TOROIDAL_SURFACE ( 'NONE', #116, 0.1389999999999999847, 0.03499999999999994088 ) ;
#160 = DIRECTION ( 'NONE',  ( 1.000000000000000000, 0.0000000000000000000, 0.0000000000000000000 ) ) ;
#161 = FACE_OUTER_BOUND ( 'NONE', #181, .T. ) ;
#162 = CARTESIAN_POINT ( 'NONE',  ( 0.0000000000000000000, 0.0000000000000000000, 0.0000000000000000000 ) ) ;
#163 = ORIENTED_EDGE ( 'NONE', *, *, #26, .F. ) ;
#164 = CC_DESIGN_PERSON_AND_ORGANIZATION_ASSIGNMENT ( #77, #129, ( #82 ) ) ;
#165 = CARTESIAN_POINT ( 'NONE',  ( 0.0000000000000000000, 0.0000000000000000000, 0.0000000000000000000 ) ) ;
#166 = COORDINATED_UNIVERSAL_TIME_OFFSET ( 8, 0, .BEHIND. ) ;
#167 = VERTEX_POINT ( 'NONE', #193 ) ;
#168 = CARTESIAN_POINT ( 'NONE',  ( 0.1040000000000000369, 0.0000000000000000000, -4.286263797015728275E-18 ) ) ;
#169 = SECURITY_CLASSIFICATION_LEVEL ( 'unclassified' ) ;
#170 = APPROVAL_ROLE ( '' ) ;
#171 = COORDINATED_UNIVERSAL_TIME_OFFSET ( 8, 0, .BEHIND. ) ;
#172 = PRODUCT_DEFINITION_SHAPE ( 'NONE', 'NONE',  #58 ) ;
#173 = EDGE_LOOP ( 'NONE', ( #100, #108, #195, #93 ) ) ;
#174 = CC_DESIGN_APPROVAL ( #73, ( #34 ) ) ;
#175 = DIRECTION ( 'NONE',  ( -0.0000000000000000000, -0.0000000000000000000, 1.000000000000000000 ) ) ;
#176 = AXIS2_PLACEMENT_3D ( 'NONE', #165, #21, #112 ) ;
#177 = DIRECTION ( 'NONE',  ( 0.0000000000000000000, -1.000000000000000000, 0.0000000000000000000 ) ) ;
#178 = ADVANCED_FACE ( 'NONE', ( #5 ), #89, .T. ) ;
#179 = LOCAL_TIME ( 8, 55, 1.000000000000000000, #74 ) ;
#180 = CARTESIAN_POINT ( 'NONE',  ( 0.0000000000000000000, 0.0000000000000000000, 0.0000000000000000000 ) ) ;
#181 = EDGE_LOOP ( 'NONE', ( #130, #9, #148, #54 ) ) ;
#182 = PERSON_AND_ORGANIZATION ( #30, #24 ) ;
#183 = DIRECTION ( 'NONE',  ( 1.000000000000000000, 0.0000000000000000000, 0.0000000000000000000 ) ) ;
#184 = DATE_AND_TIME ( #29, #179 ) ;
#185 = CIRCLE ( 'NONE', #137, 0.03499999999999994782 ) ;
#186 = APPROVAL_STATUS ( 'not_yet_approved' ) ;
#187 = APPROVAL ( #152, 'UNSPECIFIED' ) ;
#188 = CIRCLE ( 'NONE', #91, 0.1739999999999999325 ) ;
#189 = AXIS2_PLACEMENT_3D ( 'NONE', #192, #106, #12 ) ;
#190 = FACE_OUTER_BOUND ( 'NONE', #85, .T. ) ;
#191 = DIRECTION ( 'NONE',  ( -0.0000000000000000000, -0.0000000000000000000, 1.000000000000000000 ) ) ;
#192 = CARTESIAN_POINT ( 'NONE',  ( 0.1389999999999999847, 0.0000000000000000000, 0.0000000000000000000 ) ) ;
#193 = CARTESIAN_POINT ( 'NONE',  ( -0.1040000000000000369, 1.273632671113247751E-17, -4.286263797015728275E-18 ) ) ;
#194 = DATE_AND_TIME ( #157, #125 ) ;
#195 = ORIENTED_EDGE ( 'NONE', *, *, #111, .T. ) ;
#196 = DIRECTION ( 'NONE',  ( -0.0000000000000000000, -0.0000000000000000000, 1.000000000000000000 ) ) ;
ENDSEC;
END-ISO-10303-21;
