ISO-10303-21;
HEADER;
FILE_DESCRIPTION (( 'STEP AP203' ),
    '1' );
FILE_NAME ('RTN100.STEP',
    '2016-11-04T22:43:54',
    ( '' ),
    ( '' ),
    'SwSTEP 2.0',
    'SolidWorks 2016',
    '' );
FILE_SCHEMA (( 'CONFIG_CONTROL_DESIGN' ));
ENDSEC;

DATA;
#1 = CARTESIAN_POINT ( 'NONE',  ( 0.0000000000000000000, 5.817072295949926400E-018, -0.04749999999999999400 ) ) ;
#2 = CARTESIAN_POINT ( 'NONE',  ( 0.0000000000000000000, 0.0000000000000000000, 0.0000000000000000000 ) ) ;
#3 = EDGE_LOOP ( 'NONE', ( #157, #48 ) ) ;
#4 = CC_DESIGN_APPROVAL ( #230, ( #75 ) ) ;
#5 = VERTEX_POINT ( 'NONE', #1 ) ;
#6 = DIRECTION ( 'NONE',  ( 0.0000000000000000000, 0.0000000000000000000, 1.000000000000000000 ) ) ;
#7 = ORIENTED_EDGE ( 'NONE', *, *, #195, .T. ) ;
#8 = CARTESIAN_POINT ( 'NONE',  ( 0.1499999999999999900, 0.0000000000000000000, 0.0000000000000000000 ) ) ;
#9 = CARTESIAN_POINT ( 'NONE',  ( 0.0000000000000000000, 0.0000000000000000000, 0.0000000000000000000 ) ) ;
#10 = CC_DESIGN_PERSON_AND_ORGANIZATION_ASSIGNMENT ( #130, #216, ( #116 ) ) ;
#11 = DIRECTION ( 'NONE',  ( 1.000000000000000000, 0.0000000000000000000, 0.0000000000000000000 ) ) ;
#12 = UNCERTAINTY_MEASURE_WITH_UNIT (LENGTH_MEASURE( 1.000000000000000100E-005 ), #18, 'distance_accuracy_value', 'NONE');
#13 = AXIS2_PLACEMENT_3D ( 'NONE', #249, #36, #54 ) ;
#14 = DIRECTION ( 'NONE',  ( 1.000000000000000000, 0.0000000000000000000, 0.0000000000000000000 ) ) ;
#15 = AXIS2_PLACEMENT_3D ( 'NONE', #189, #82, #80 ) ;
#16 = DIRECTION ( 'NONE',  ( 0.0000000000000000000, 0.0000000000000000000, -1.000000000000000000 ) ) ;
#17 = EDGE_CURVE ( 'NONE', #220, #165, #150, .T. ) ;
#18 =( CONVERSION_BASED_UNIT ( 'INCH', #209 ) LENGTH_UNIT ( ) NAMED_UNIT ( #188 ) );
#19 = CARTESIAN_POINT ( 'NONE',  ( 0.1499999999999999900, 0.0000000000000000000, 0.04749999999999999400 ) ) ;
#20 = CARTESIAN_POINT ( 'NONE',  ( 0.0000000000000000000, 0.0000000000000000000, 0.0000000000000000000 ) ) ;
#21 = CARTESIAN_POINT ( 'NONE',  ( 0.0000000000000000000, 0.0000000000000000000, 0.04749999999999999400 ) ) ;
#22 = FACE_OUTER_BOUND ( 'NONE', #159, .T. ) ;
#23 = CARTESIAN_POINT ( 'NONE',  ( 0.1499999999999999900, 5.817072295949926400E-018, -0.04749999999999999400 ) ) ;
#24 = PERSON_AND_ORGANIZATION ( #25, #183 ) ;
#25 = PERSON ( 'UNSPECIFIED', 'UNSPECIFIED', 'UNSPECIFIED', ('UNSPECIFIED'), ('UNSPECIFIED'), ('UNSPECIFIED') ) ;
#26 = VERTEX_POINT ( 'NONE', #227 ) ;
#27 = DATE_AND_TIME ( #174, #92 ) ;
#28 = CC_DESIGN_PERSON_AND_ORGANIZATION_ASSIGNMENT ( #233, #66, ( #86 ) ) ;
#29 =( NAMED_UNIT ( * ) SI_UNIT ( $, .STERADIAN. ) SOLID_ANGLE_UNIT ( ) );
#30 = DIRECTION ( 'NONE',  ( -1.000000000000000000, -0.0000000000000000000, -0.0000000000000000000 ) ) ;
#31 = PERSON_AND_ORGANIZATION ( #25, #183 ) ;
#32 = DIRECTION ( 'NONE',  ( -1.000000000000000000, -0.0000000000000000000, -0.0000000000000000000 ) ) ;
#33 = CARTESIAN_POINT ( 'NONE',  ( 0.0000000000000000000, 0.0000000000000000000, 0.0000000000000000000 ) ) ;
#34 = DIRECTION ( 'NONE',  ( 1.000000000000000000, 0.0000000000000000000, 0.0000000000000000000 ) ) ;
#35 = COORDINATED_UNIVERSAL_TIME_OFFSET ( 8, 0, .BEHIND. ) ;
#36 = DIRECTION ( 'NONE',  ( 1.000000000000000000, 0.0000000000000000000, 0.0000000000000000000 ) ) ;
#37 = FACE_BOUND ( 'NONE', #3, .T. ) ;
#38 = DIRECTION ( 'NONE',  ( 0.0000000000000000000, 0.0000000000000000000, -1.000000000000000000 ) ) ;
#39 = ORIENTED_EDGE ( 'NONE', *, *, #106, .F. ) ;
#40 = CIRCLE ( 'NONE', #129, 0.08749999999999999400 ) ;
#41 = SECURITY_CLASSIFICATION_LEVEL ( 'unclassified' ) ;
#42 = DIRECTION ( 'NONE',  ( 0.0000000000000000000, 0.0000000000000000000, -1.000000000000000000 ) ) ;
#43 = CARTESIAN_POINT ( 'NONE',  ( 0.0000000000000000000, 0.0000000000000000000, 0.08749999999999999400 ) ) ;
#44 = DIRECTION ( 'NONE',  ( 0.0000000000000000000, 0.0000000000000000000, -1.000000000000000000 ) ) ;
#45 = DIRECTION ( 'NONE',  ( 1.000000000000000000, 0.0000000000000000000, 0.0000000000000000000 ) ) ;
#46 = ORIENTED_EDGE ( 'NONE', *, *, #199, .T. ) ;
#47 = CC_DESIGN_PERSON_AND_ORGANIZATION_ASSIGNMENT ( #24, #124, ( #228 ) ) ;
#48 = ORIENTED_EDGE ( 'NONE', *, *, #17, .F. ) ;
#49 = CC_DESIGN_PERSON_AND_ORGANIZATION_ASSIGNMENT ( #246, #134, ( #75 ) ) ;
#50 = EDGE_LOOP ( 'NONE', ( #74, #77, #84, #211 ) ) ;
#51 = LINE ( 'NONE', #79, #171 ) ;
#52 = MANIFOLD_SOLID_BREP ( 'Extrude1', #72 ) ;
#53 = CALENDAR_DATE ( 2016, 4, 11 ) ;
#54 = DIRECTION ( 'NONE',  ( 0.0000000000000000000, 0.0000000000000000000, -1.000000000000000000 ) ) ;
#55 = CC_DESIGN_PERSON_AND_ORGANIZATION_ASSIGNMENT ( #120, #235, ( #75 ) ) ;
#56 = CARTESIAN_POINT ( 'NONE',  ( 0.1499999999999999900, 0.0000000000000000000, 0.0000000000000000000 ) ) ;
#57 = DIRECTION ( 'NONE',  ( -1.000000000000000000, -0.0000000000000000000, -0.0000000000000000000 ) ) ;
#58 = AXIS2_PLACEMENT_3D ( 'NONE', #132, #32, #63 ) ;
#59 = ORIENTED_EDGE ( 'NONE', *, *, #213, .T. ) ;
#60 = ORIENTED_EDGE ( 'NONE', *, *, #213, .F. ) ;
#61 = AXIS2_PLACEMENT_3D ( 'NONE', #248, #182, #44 ) ;
#62 = DIRECTION ( 'NONE',  ( -1.000000000000000000, -0.0000000000000000000, -0.0000000000000000000 ) ) ;
#63 = DIRECTION ( 'NONE',  ( 0.0000000000000000000, 0.0000000000000000000, 1.000000000000000000 ) ) ;
#64 = COORDINATED_UNIVERSAL_TIME_OFFSET ( 8, 0, .BEHIND. ) ;
#65 = APPROVAL ( #138, 'UNSPECIFIED' ) ;
#66 = PERSON_AND_ORGANIZATION_ROLE ( 'classification_officer' ) ;
#67 = ORIENTED_EDGE ( 'NONE', *, *, #203, .T. ) ;
#68 = DIRECTION ( 'NONE',  ( 1.000000000000000000, 0.0000000000000000000, 0.0000000000000000000 ) ) ;
#69 = CARTESIAN_POINT ( 'NONE',  ( 0.1499999999999999900, 1.071565949253933700E-017, -0.08749999999999999400 ) ) ;
#70 = CC_DESIGN_APPROVAL ( #161, ( #86 ) ) ;
#71 = APPLICATION_PROTOCOL_DEFINITION ( 'international standard', 'config_control_design', 1994, #240 ) ;
#72 = CLOSED_SHELL ( 'NONE', ( #198, #193, #202, #197, #200, #207 ) ) ;
#73 = VECTOR ( 'NONE', #62, 39.37007874015748100 ) ;
#74 = ORIENTED_EDGE ( 'NONE', *, *, #190, .T. ) ;
#75 = PRODUCT_DEFINITION_FORMATION_WITH_SPECIFIED_SOURCE ( 'ANY', '', #228, .NOT_KNOWN. ) ;
#76 = EDGE_LOOP ( 'NONE', ( #206, #67, #145, #143 ) ) ;
#77 = ORIENTED_EDGE ( 'NONE', *, *, #215, .T. ) ;
#78 = AXIS2_PLACEMENT_3D ( 'NONE', #20, #139, #148 ) ;
#79 = CARTESIAN_POINT ( 'NONE',  ( 0.1499999999999999900, 0.0000000000000000000, 0.08749999999999999400 ) ) ;
#80 = DIRECTION ( 'NONE',  ( 0.0000000000000000000, 0.0000000000000000000, 1.000000000000000000 ) ) ;
#81 = CC_DESIGN_DATE_AND_TIME_ASSIGNMENT ( #27, #245, ( #86 ) ) ;
#82 = DIRECTION ( 'NONE',  ( -1.000000000000000000, -0.0000000000000000000, -0.0000000000000000000 ) ) ;
#83 = DATE_AND_TIME ( #239, #208 ) ;
#84 = ORIENTED_EDGE ( 'NONE', *, *, #185, .F. ) ;
#85 = DIRECTION ( 'NONE',  ( -1.000000000000000000, -0.0000000000000000000, -0.0000000000000000000 ) ) ;
#86 = SECURITY_CLASSIFICATION ( '', '', #41 ) ;
#87 = PERSON_AND_ORGANIZATION ( #25, #183 ) ;
#88 = CC_DESIGN_SECURITY_CLASSIFICATION ( #86, ( #75 ) ) ;
#89 = EDGE_LOOP ( 'NONE', ( #60, #39 ) ) ;
#90 = AXIS2_PLACEMENT_3D ( 'NONE', #8, #68, #117 ) ;
#91 = AXIS2_PLACEMENT_3D ( 'NONE', #2, #11, #16 ) ;
#92 = LOCAL_TIME ( 15, 43, 54.00000000000000000, #114 ) ;
#93 = CIRCLE ( 'NONE', #91, 0.04749999999999999400 ) ;
#94 = COORDINATED_UNIVERSAL_TIME_OFFSET ( 8, 0, .BEHIND. ) ;
#95 = CARTESIAN_POINT ( 'NONE',  ( 0.0000000000000000000, 0.0000000000000000000, 0.0000000000000000000 ) ) ;
#96 = EDGE_CURVE ( 'NONE', #5, #131, #93, .T. ) ;
#97 = LINE ( 'NONE', #250, #73 ) ;
#98 = APPROVAL_DATE_TIME ( #214, #65 ) ;
#99 = AXIS2_PLACEMENT_3D ( 'NONE', #95, #45, #38 ) ;
#100 = DIRECTION ( 'NONE',  ( -1.000000000000000000, -0.0000000000000000000, -0.0000000000000000000 ) ) ;
#101 = LOCAL_TIME ( 15, 43, 54.00000000000000000, #94 ) ;
#102 = LOCAL_TIME ( 15, 43, 54.00000000000000000, #64 ) ;
#103 = APPROVAL_STATUS ( 'not_yet_approved' ) ;
#104 = CIRCLE ( 'NONE', #13, 0.08749999999999999400 ) ;
#105 = CIRCLE ( 'NONE', #111, 0.04749999999999999400 ) ;
#106 = EDGE_CURVE ( 'NONE', #192, #163, #40, .T. ) ;
#107 = APPROVAL_DATE_TIME ( #83, #230 ) ;
#108 = ORIENTED_EDGE ( 'NONE', *, *, #203, .F. ) ;
#109 = EDGE_LOOP ( 'NONE', ( #108, #160, #46, #59 ) ) ;
#110 = ORIENTED_EDGE ( 'NONE', *, *, #237, .T. ) ;
#111 = AXIS2_PLACEMENT_3D ( 'NONE', #9, #175, #221 ) ;
#112 = EDGE_LOOP ( 'NONE', ( #187, #210 ) ) ;
#113 = CC_DESIGN_DATE_AND_TIME_ASSIGNMENT ( #242, #167, ( #116 ) ) ;
#114 = COORDINATED_UNIVERSAL_TIME_OFFSET ( 8, 0, .BEHIND. ) ;
#115 = CARTESIAN_POINT ( 'NONE',  ( 0.0000000000000000000, 0.0000000000000000000, 0.0000000000000000000 ) ) ;
#116 = PRODUCT_DEFINITION ( 'UNKNOWN', '', #75, #236 ) ;
#117 = DIRECTION ( 'NONE',  ( 0.0000000000000000000, 0.0000000000000000000, -1.000000000000000000 ) ) ;
#118 = FACE_BOUND ( 'NONE', #112, .T. ) ;
#119 = PLANE ( 'NONE',  #99 ) ;
#120 = PERSON_AND_ORGANIZATION ( #25, #183 ) ;
#121 =( NAMED_UNIT ( * ) PLANE_ANGLE_UNIT ( ) SI_UNIT ( $, .RADIAN. ) );
#122 = CYLINDRICAL_SURFACE ( 'NONE', #166, 0.08749999999999999400 ) ;
#123 = FACE_OUTER_BOUND ( 'NONE', #76, .T. ) ;
#124 = PERSON_AND_ORGANIZATION_ROLE ( 'design_owner' ) ;
#125 = APPROVAL_PERSON_ORGANIZATION ( #31, #65, #224 ) ;
#126 = PRODUCT_DEFINITION_SHAPE ( 'NONE', 'NONE',  #116 ) ;
#127 = ORIENTED_EDGE ( 'NONE', *, *, #215, .F. ) ;
#128 = FACE_OUTER_BOUND ( 'NONE', #50, .T. ) ;
#129 = AXIS2_PLACEMENT_3D ( 'NONE', #33, #34, #42 ) ;
#130 = PERSON_AND_ORGANIZATION ( #25, #183 ) ;
#131 = VERTEX_POINT ( 'NONE', #21 ) ;
#132 = CARTESIAN_POINT ( 'NONE',  ( 0.1499999999999999900, 0.0000000000000000000, 0.0000000000000000000 ) ) ;
#133 = AXIS2_PLACEMENT_3D ( 'NONE', #177, #153, #141 ) ;
#134 = PERSON_AND_ORGANIZATION_ROLE ( 'design_supplier' ) ;
#135 = AXIS2_PLACEMENT_3D ( 'NONE', #238, #142, #186 ) ;
#136 = CARTESIAN_POINT ( 'NONE',  ( 0.0000000000000000000, 1.071565949253933700E-017, -0.08749999999999999400 ) ) ;
#137 = LINE ( 'NONE', #154, #184 ) ;
#138 = APPROVAL_STATUS ( 'not_yet_approved' ) ;
#139 = DIRECTION ( 'NONE',  ( 1.000000000000000000, 0.0000000000000000000, 0.0000000000000000000 ) ) ;
#140 = CARTESIAN_POINT ( 'NONE',  ( 0.1499999999999999900, 0.0000000000000000000, 0.0000000000000000000 ) ) ;
#141 = DIRECTION ( 'NONE',  ( 0.0000000000000000000, 0.0000000000000000000, -1.000000000000000000 ) ) ;
#142 = DIRECTION ( 'NONE',  ( 1.000000000000000000, 0.0000000000000000000, 0.0000000000000000000 ) ) ;
#143 = ORIENTED_EDGE ( 'NONE', *, *, #199, .F. ) ;
#144 = COORDINATED_UNIVERSAL_TIME_OFFSET ( 8, 0, .BEHIND. ) ;
#145 = ORIENTED_EDGE ( 'NONE', *, *, #106, .T. ) ;
#146 = CIRCLE ( 'NONE', #135, 0.08749999999999999400 ) ;
#147 = CC_DESIGN_APPROVAL ( #65, ( #116 ) ) ;
#148 = DIRECTION ( 'NONE',  ( 0.0000000000000000000, 0.0000000000000000000, -1.000000000000000000 ) ) ;
#149 = PERSON_AND_ORGANIZATION ( #25, #183 ) ;
#150 = CIRCLE ( 'NONE', #61, 0.04749999999999999400 ) ;
#151 = CIRCLE ( 'NONE', #133, 0.04749999999999999400 ) ;
#152 = ORIENTED_EDGE ( 'NONE', *, *, #191, .T. ) ;
#153 = DIRECTION ( 'NONE',  ( 1.000000000000000000, 0.0000000000000000000, 0.0000000000000000000 ) ) ;
#154 = CARTESIAN_POINT ( 'NONE',  ( 0.1499999999999999900, 0.0000000000000000000, 0.04749999999999999400 ) ) ;
#155 = CIRCLE ( 'NONE', #78, 0.08749999999999999400 ) ;
#156 = MECHANICAL_CONTEXT ( 'NONE', #232, 'mechanical' ) ;
#157 = ORIENTED_EDGE ( 'NONE', *, *, #190, .F. ) ;
#158 = DIRECTION ( 'NONE',  ( 0.0000000000000000000, 0.0000000000000000000, 1.000000000000000000 ) ) ;
#159 = EDGE_LOOP ( 'NONE', ( #7, #152 ) ) ;
#160 = ORIENTED_EDGE ( 'NONE', *, *, #195, .F. ) ;
#161 = APPROVAL ( #226, 'UNSPECIFIED' ) ;
#162 = DATE_AND_TIME ( #53, #101 ) ;
#163 = VERTEX_POINT ( 'NONE', #43 ) ;
#164 = AXIS2_PLACEMENT_3D ( 'NONE', #56, #30, #218 ) ;
#165 = VERTEX_POINT ( 'NONE', #19 ) ;
#166 = AXIS2_PLACEMENT_3D ( 'NONE', #140, #252, #6 ) ;
#167 = DATE_TIME_ROLE ( 'creation_date' ) ;
#168 = CARTESIAN_POINT ( 'NONE',  ( 0.1499999999999999900, 1.071565949253933700E-017, -0.08749999999999999400 ) ) ;
#169 =( LENGTH_UNIT ( ) NAMED_UNIT ( * ) SI_UNIT ( $, .METRE. ) );
#170 =( GEOMETRIC_REPRESENTATION_CONTEXT ( 3 ) GLOBAL_UNCERTAINTY_ASSIGNED_CONTEXT ( ( #12 ) ) GLOBAL_UNIT_ASSIGNED_CONTEXT ( ( #18, #121, #29 ) ) REPRESENTATION_CONTEXT ( 'NONE', 'WORKASPACE' ) );
#171 = VECTOR ( 'NONE', #57, 39.37007874015748100 ) ;
#172 = LINE ( 'NONE', #69, #234 ) ;
#173 = VERTEX_POINT ( 'NONE', #168 ) ;
#174 = CALENDAR_DATE ( 2016, 4, 11 ) ;
#175 = DIRECTION ( 'NONE',  ( 1.000000000000000000, 0.0000000000000000000, 0.0000000000000000000 ) ) ;
#176 = APPROVAL_ROLE ( '' ) ;
#177 = CARTESIAN_POINT ( 'NONE',  ( 0.1499999999999999900, 0.0000000000000000000, 0.0000000000000000000 ) ) ;
#178 = EDGE_LOOP ( 'NONE', ( #127, #179, #110, #223 ) ) ;
#179 = ORIENTED_EDGE ( 'NONE', *, *, #17, .T. ) ;
#180 = ADVANCED_BREP_SHAPE_REPRESENTATION ( 'RTN100', ( #52, #231 ), #170 ) ;
#181 = CALENDAR_DATE ( 2016, 4, 11 ) ;
#182 = DIRECTION ( 'NONE',  ( 1.000000000000000000, 0.0000000000000000000, 0.0000000000000000000 ) ) ;
#183 = ORGANIZATION ( 'UNSPECIFIED', 'UNSPECIFIED', '' ) ;
#184 = VECTOR ( 'NONE', #100, 39.37007874015748100 ) ;
#185 = EDGE_CURVE ( 'NONE', #131, #5, #105, .T. ) ;
#186 = DIRECTION ( 'NONE',  ( 0.0000000000000000000, 0.0000000000000000000, -1.000000000000000000 ) ) ;
#187 = ORIENTED_EDGE ( 'NONE', *, *, #185, .T. ) ;
#188 = DIMENSIONAL_EXPONENTS ( 1.000000000000000000, 0.0000000000000000000, 0.0000000000000000000, 0.0000000000000000000, 0.0000000000000000000, 0.0000000000000000000, 0.0000000000000000000 ) ;
#189 = CARTESIAN_POINT ( 'NONE',  ( 0.1499999999999999900, 0.0000000000000000000, 0.0000000000000000000 ) ) ;
#190 = EDGE_CURVE ( 'NONE', #165, #220, #151, .T. ) ;
#191 = EDGE_CURVE ( 'NONE', #173, #26, #146, .T. ) ;
#192 = VERTEX_POINT ( 'NONE', #136 ) ;
#193 = ADVANCED_FACE ( 'NONE', ( #123 ), #241, .T. ) ;
#194 = PLANE ( 'NONE',  #90 ) ;
#195 = EDGE_CURVE ( 'NONE', #26, #173, #104, .T. ) ;
#196 = CALENDAR_DATE ( 2016, 4, 11 ) ;
#197 = ADVANCED_FACE ( 'NONE', ( #243, #118 ), #119, .F. ) ;
#198 = ADVANCED_FACE ( 'NONE', ( #128 ), #222, .F. ) ;
#199 = EDGE_CURVE ( 'NONE', #26, #163, #51, .T. ) ;
#200 = ADVANCED_FACE ( 'NONE', ( #217 ), #122, .T. ) ;
#201 = APPROVAL_PERSON_ORGANIZATION ( #149, #161, #176 ) ;
#202 = ADVANCED_FACE ( 'NONE', ( #22, #37 ), #194, .T. ) ;
#203 = EDGE_CURVE ( 'NONE', #173, #192, #172, .T. ) ;
#204 = CYLINDRICAL_SURFACE ( 'NONE', #15, 0.04749999999999999400 ) ;
#205 = APPROVAL_DATE_TIME ( #162, #161 ) ;
#206 = ORIENTED_EDGE ( 'NONE', *, *, #191, .F. ) ;
#207 = ADVANCED_FACE ( 'NONE', ( #219 ), #204, .F. ) ;
#208 = LOCAL_TIME ( 15, 43, 54.00000000000000000, #35 ) ;
#209 = LENGTH_MEASURE_WITH_UNIT ( LENGTH_MEASURE( 0.02539999999999999900 ), #169 );
#210 = ORIENTED_EDGE ( 'NONE', *, *, #96, .T. ) ;
#211 = ORIENTED_EDGE ( 'NONE', *, *, #237, .F. ) ;
#212 = APPROVAL_ROLE ( '' ) ;
#213 = EDGE_CURVE ( 'NONE', #163, #192, #155, .T. ) ;
#214 = DATE_AND_TIME ( #196, #247 ) ;
#215 = EDGE_CURVE ( 'NONE', #220, #5, #97, .T. ) ;
#216 = PERSON_AND_ORGANIZATION_ROLE ( 'creator' ) ;
#217 = FACE_OUTER_BOUND ( 'NONE', #109, .T. ) ;
#218 = DIRECTION ( 'NONE',  ( 0.0000000000000000000, 0.0000000000000000000, 1.000000000000000000 ) ) ;
#219 = FACE_OUTER_BOUND ( 'NONE', #178, .T. ) ;
#220 = VERTEX_POINT ( 'NONE', #23 ) ;
#221 = DIRECTION ( 'NONE',  ( 0.0000000000000000000, 0.0000000000000000000, -1.000000000000000000 ) ) ;
#222 = CYLINDRICAL_SURFACE ( 'NONE', #164, 0.04749999999999999400 ) ;
#223 = ORIENTED_EDGE ( 'NONE', *, *, #96, .F. ) ;
#224 = APPROVAL_ROLE ( '' ) ;
#225 = APPROVAL_PERSON_ORGANIZATION ( #87, #230, #212 ) ;
#226 = APPROVAL_STATUS ( 'not_yet_approved' ) ;
#227 = CARTESIAN_POINT ( 'NONE',  ( 0.1499999999999999900, 0.0000000000000000000, 0.08749999999999999400 ) ) ;
#228 = PRODUCT ( 'RTN100', 'RTN100', '', ( #156 ) ) ;
#229 = SHAPE_DEFINITION_REPRESENTATION ( #126, #180 ) ;
#230 = APPROVAL ( #103, 'UNSPECIFIED' ) ;
#231 = AXIS2_PLACEMENT_3D ( 'NONE', #115, #158, #14 ) ;
#232 = APPLICATION_CONTEXT ( 'configuration controlled 3d designs of mechanical parts and assemblies' ) ;
#233 = PERSON_AND_ORGANIZATION ( #25, #183 ) ;
#234 = VECTOR ( 'NONE', #85, 39.37007874015748100 ) ;
#235 = PERSON_AND_ORGANIZATION_ROLE ( 'creator' ) ;
#236 = DESIGN_CONTEXT ( 'detailed design', #240, 'design' ) ;
#237 = EDGE_CURVE ( 'NONE', #165, #131, #137, .T. ) ;
#238 = CARTESIAN_POINT ( 'NONE',  ( 0.1499999999999999900, 0.0000000000000000000, 0.0000000000000000000 ) ) ;
#239 = CALENDAR_DATE ( 2016, 4, 11 ) ;
#240 = APPLICATION_CONTEXT ( 'configuration controlled 3d designs of mechanical parts and assemblies' ) ;
#241 = CYLINDRICAL_SURFACE ( 'NONE', #58, 0.08749999999999999400 ) ;
#242 = DATE_AND_TIME ( #181, #102 ) ;
#243 = FACE_OUTER_BOUND ( 'NONE', #89, .T. ) ;
#244 = PRODUCT_RELATED_PRODUCT_CATEGORY ( 'detail', '', ( #228 ) ) ;
#245 = DATE_TIME_ROLE ( 'classification_date' ) ;
#246 = PERSON_AND_ORGANIZATION ( #25, #183 ) ;
#247 = LOCAL_TIME ( 15, 43, 54.00000000000000000, #144 ) ;
#248 = CARTESIAN_POINT ( 'NONE',  ( 0.1499999999999999900, 0.0000000000000000000, 0.0000000000000000000 ) ) ;
#249 = CARTESIAN_POINT ( 'NONE',  ( 0.1499999999999999900, 0.0000000000000000000, 0.0000000000000000000 ) ) ;
#250 = CARTESIAN_POINT ( 'NONE',  ( 0.1499999999999999900, 5.817072295949926400E-018, -0.04749999999999999400 ) ) ;
#251 = APPLICATION_PROTOCOL_DEFINITION ( 'international standard', 'config_control_design', 1994, #232 ) ;
#252 = DIRECTION ( 'NONE',  ( -1.000000000000000000, -0.0000000000000000000, -0.0000000000000000000 ) ) ;
ENDSEC;
END-ISO-10303-21;
