ISO-10303-21;
HEADER;
FILE_DESCRIPTION (( 'STEP AP203' ),
    '1' );
FILE_NAME ('7611D2-S.STEP',
    '2016-06-29T22:04:50',
    ( '' ),
    ( '' ),
    'SwSTEP 2.0',
    'SolidWorks 2014',
    '' );
FILE_SCHEMA (( 'CONFIG_CONTROL_DESIGN' ));
ENDSEC;

DATA;
#1 = ORIENTED_EDGE ( 'NONE', *, *, #41, .F. ) ;
#2 = DATE_AND_TIME ( #84, #159 ) ;
#3 = EDGE_LOOP ( 'NONE', ( #310, #263, #257, #292, #164 ) ) ;
#4 = VECTOR ( 'NONE', #120, 39.37007874015748100 ) ;
#5 = LINE ( 'NONE', #46, #269 ) ;
#6 = CIRCLE ( 'NONE', #32, 0.08799999999999999500 ) ;
#7 = DIRECTION ( 'NONE',  ( -0.0000000000000000000, 1.000000000000000000, -0.0000000000000000000 ) ) ;
#8 = DIRECTION ( 'NONE',  ( 0.0000000000000000000, 0.0000000000000000000, -1.000000000000000000 ) ) ;
#9 = CARTESIAN_POINT ( 'NONE',  ( -0.1249999999999995800, 0.4321567416492214700, -1.530808498934186600E-017 ) ) ;
#10 = AXIS2_PLACEMENT_3D ( 'NONE', #127, #8, #213 ) ;
#11 = CC_DESIGN_PERSON_AND_ORGANIZATION_ASSIGNMENT ( #148, #278, ( #58 ) ) ;
#12 = EDGE_CURVE ( 'NONE', #215, #104, #236, .T. ) ;
#13 = CC_DESIGN_PERSON_AND_ORGANIZATION_ASSIGNMENT ( #100, #345, ( #338 ) ) ;
#14 = DIRECTION ( 'NONE',  ( 0.0000000000000000000, -1.000000000000000000, 0.0000000000000000000 ) ) ;
#15 = ADVANCED_FACE ( 'NONE', ( #286 ), #166, .T. ) ;
#16 = PERSON_AND_ORGANIZATION ( #371, #43 ) ;
#17 = CIRCLE ( 'NONE', #214, 0.1249999999999999900 ) ;
#18 = ORIENTED_EDGE ( 'NONE', *, *, #192, .T. ) ;
#19 = VERTEX_POINT ( 'NONE', #195 ) ;
#20 = FACE_OUTER_BOUND ( 'NONE', #188, .T. ) ;
#21 = ORIENTED_EDGE ( 'NONE', *, *, #62, .T. ) ;
#22 = DIRECTION ( 'NONE',  ( -0.0000000000000000000, 1.000000000000000000, -0.0000000000000000000 ) ) ;
#23 = CARTESIAN_POINT ( 'NONE',  ( 0.0000000000000000000, 0.3799999999999999500, 0.0000000000000000000 ) ) ;
#24 = DIRECTION ( 'NONE',  ( -0.0000000000000000000, 1.000000000000000000, -0.0000000000000000000 ) ) ;
#25 = COORDINATED_UNIVERSAL_TIME_OFFSET ( 8, 0, .BEHIND. ) ;
#26 = CARTESIAN_POINT ( 'NONE',  ( 0.0000000000000000000, 0.3799999999999999500, 0.09349999999999997200 ) ) ;
#27 = PRODUCT ( '7611D2-S', '7611D2-S', '', ( #256 ) ) ;
#28 = LINE ( 'NONE', #76, #326 ) ;
#29 = EDGE_LOOP ( 'NONE', ( #328, #229, #30, #373 ) ) ;
#30 = ORIENTED_EDGE ( 'NONE', *, *, #171, .F. ) ;
#31 = ORIENTED_EDGE ( 'NONE', *, *, #186, .F. ) ;
#32 = AXIS2_PLACEMENT_3D ( 'NONE', #302, #283, #108 ) ;
#33 = LOCAL_TIME ( 15, 4, 50.00000000000000000, #111 ) ;
#34 = SECURITY_CLASSIFICATION ( '', '', #99 ) ;
#35 = EDGE_CURVE ( 'NONE', #65, #215, #87, .T. ) ;
#36 = CIRCLE ( 'NONE', #273, 0.1249999999999999900 ) ;
#37 = CC_DESIGN_DATE_AND_TIME_ASSIGNMENT ( #92, #169, ( #338 ) ) ;
#38 = ORIENTED_EDGE ( 'NONE', *, *, #12, .F. ) ;
#39 = ORIENTED_EDGE ( 'NONE', *, *, #12, .T. ) ;
#40 = DIRECTION ( 'NONE',  ( 0.0000000000000000000, 0.0000000000000000000, 1.000000000000000000 ) ) ;
#41 = EDGE_CURVE ( 'NONE', #19, #194, #183, .T. ) ;
#42 = DIRECTION ( 'NONE',  ( -0.0000000000000000000, 1.000000000000000000, -0.0000000000000000000 ) ) ;
#43 = ORGANIZATION ( 'UNSPECIFIED', 'UNSPECIFIED', '' ) ;
#44 = APPROVAL_DATE_TIME ( #124, #89 ) ;
#45 = FACE_OUTER_BOUND ( 'NONE', #370, .T. ) ;
#46 = CARTESIAN_POINT ( 'NONE',  ( 0.0000000000000000000, 0.3799999999999999500, 0.09349999999999997200 ) ) ;
#47 = CARTESIAN_POINT ( 'NONE',  ( 0.0000000000000000000, 0.4321567416492214700, 0.1249999999999999900 ) ) ;
#48 = DIRECTION ( 'NONE',  ( 0.0000000000000000000, 0.0000000000000000000, 1.000000000000000000 ) ) ;
#49 = APPROVAL_PERSON_ORGANIZATION ( #128, #89, #156 ) ;
#50 = DIRECTION ( 'NONE',  ( 1.000000000000000000, 0.0000000000000000000, 0.0000000000000000000 ) ) ;
#51 = FACE_OUTER_BOUND ( 'NONE', #220, .T. ) ;
#52 = AXIS2_PLACEMENT_3D ( 'NONE', #305, #240, #66 ) ;
#53 = DIRECTION ( 'NONE',  ( 0.0000000000000000000, 0.0000000000000000000, 1.000000000000000000 ) ) ;
#54 = CC_DESIGN_PERSON_AND_ORGANIZATION_ASSIGNMENT ( #75, #303, ( #34 ) ) ;
#55 = EDGE_CURVE ( 'NONE', #74, #63, #28, .T. ) ;
#56 = DIRECTION ( 'NONE',  ( 0.0000000000000000000, 0.0000000000000000000, 1.000000000000000000 ) ) ;
#57 = DIRECTION ( 'NONE',  ( -0.0000000000000000000, 1.000000000000000000, -0.0000000000000000000 ) ) ;
#58 = PRODUCT_DEFINITION_FORMATION_WITH_SPECIFIED_SOURCE ( 'ANY', '', #27, .NOT_KNOWN. ) ;
#59 = DIRECTION ( 'NONE',  ( 1.772329473284429300E-018, 0.9998952726866997500, -0.01447216842046534700 ) ) ;
#60 = ORIENTED_EDGE ( 'NONE', *, *, #294, .F. ) ;
#61 = PRODUCT_DEFINITION_SHAPE ( 'NONE', 'NONE',  #338 ) ;
#62 = EDGE_CURVE ( 'NONE', #254, #251, #173, .T. ) ;
#63 = VERTEX_POINT ( 'NONE', #47 ) ;
#64 = ADVANCED_BREP_SHAPE_REPRESENTATION ( '7611D2-S', ( #203, #296 ), #217 ) ;
#65 = VERTEX_POINT ( 'NONE', #138 ) ;
#66 = DIRECTION ( 'NONE',  ( 0.0000000000000000000, 0.0000000000000000000, 1.000000000000000000 ) ) ;
#67 = DIRECTION ( 'NONE',  ( 0.0000000000000000000, 0.0000000000000000000, 1.000000000000000000 ) ) ;
#68 = DIRECTION ( 'NONE',  ( -0.0000000000000000000, 1.000000000000000000, -0.0000000000000000000 ) ) ;
#69 = PERSON_AND_ORGANIZATION_ROLE ( 'creator' ) ;
#70 = CC_DESIGN_DATE_AND_TIME_ASSIGNMENT ( #143, #131, ( #34 ) ) ;
#71 = EDGE_CURVE ( 'NONE', #265, #83, #103, .T. ) ;
#72 = DIRECTION ( 'NONE',  ( 0.0000000000000000000, 0.9998952726866997500, 0.01447216842046534700 ) ) ;
#73 = APPROVAL ( #366, 'UNSPECIFIED' ) ;
#74 = VERTEX_POINT ( 'NONE', #321 ) ;
#75 = PERSON_AND_ORGANIZATION ( #371, #43 ) ;
#76 = CARTESIAN_POINT ( 'NONE',  ( 0.0000000000000000000, 0.8978661764158524200, 0.1249999999999999900 ) ) ;
#77 = AXIS2_PLACEMENT_3D ( 'NONE', #23, #225, #48 ) ;
#78 = DIRECTION ( 'NONE',  ( 0.0000000000000000000, -1.000000000000000000, 0.0000000000000000000 ) ) ;
#79 = PERSON_AND_ORGANIZATION_ROLE ( 'design_owner' ) ;
#80 = DIRECTION ( 'NONE',  ( 0.0000000000000000000, 0.0000000000000000000, 1.000000000000000000 ) ) ;
#81 = CARTESIAN_POINT ( 'NONE',  ( 0.0000000000000000000, 0.8978661764158524200, 0.0000000000000000000 ) ) ;
#82 = CARTESIAN_POINT ( 'NONE',  ( 0.0000000000000000000, 0.4321567416492214700, 0.0000000000000000000 ) ) ;
#83 = VERTEX_POINT ( 'NONE', #271 ) ;
#84 = CALENDAR_DATE ( 2016, 29, 6 ) ;
#85 = EDGE_LOOP ( 'NONE', ( #249, #267 ) ) ;
#86 = FACE_OUTER_BOUND ( 'NONE', #3, .T. ) ;
#87 = LINE ( 'NONE', #204, #324 ) ;
#88 = VECTOR ( 'NONE', #356, 39.37007874015748100 ) ;
#89 = APPROVAL ( #337, 'UNSPECIFIED' ) ;
#90 = EDGE_CURVE ( 'NONE', #83, #19, #235, .T. ) ;
#91 = CC_DESIGN_APPROVAL ( #73, ( #58 ) ) ;
#92 = DATE_AND_TIME ( #172, #247 ) ;
#93 = LINE ( 'NONE', #266, #4 ) ;
#94 = ORIENTED_EDGE ( 'NONE', *, *, #365, .T. ) ;
#95 = SPHERICAL_SURFACE ( 'NONE', #10, 1.000000000000000000 ) ;
#96 = VERTEX_POINT ( 'NONE', #228 ) ;
#97 = CARTESIAN_POINT ( 'NONE',  ( 0.0000000000000000000, 0.0000000000000000000, 0.0000000000000000000 ) ) ;
#98 = ORIENTED_EDGE ( 'NONE', *, *, #62, .F. ) ;
#99 = SECURITY_CLASSIFICATION_LEVEL ( 'unclassified' ) ;
#100 = PERSON_AND_ORGANIZATION ( #371, #43 ) ;
#101 = CARTESIAN_POINT ( 'NONE',  ( 6.123233995736766000E-017, 0.4399999999999998900, 0.0000000000000000000 ) ) ;
#102 = ADVANCED_FACE ( 'NONE', ( #86 ), #291, .F. ) ;
#103 = CIRCLE ( 'NONE', #180, 0.1249999999999999900 ) ;
#104 = VERTEX_POINT ( 'NONE', #26 ) ;
#105 = ORIENTED_EDGE ( 'NONE', *, *, #90, .F. ) ;
#106 = ORIENTED_EDGE ( 'NONE', *, *, #41, .T. ) ;
#107 = DIRECTION ( 'NONE',  ( -0.0000000000000000000, 1.000000000000000000, -0.0000000000000000000 ) ) ;
#108 = DIRECTION ( 'NONE',  ( 0.0000000000000000000, 0.0000000000000000000, 1.000000000000000000 ) ) ;
#109 = ORIENTED_EDGE ( 'NONE', *, *, #205, .T. ) ;
#110 = APPLICATION_PROTOCOL_DEFINITION ( 'international standard', 'config_control_design', 1994, #287 ) ;
#111 = COORDINATED_UNIVERSAL_TIME_OFFSET ( 8, 0, .BEHIND. ) ;
#112 = CONICAL_SURFACE ( 'NONE', #232, 0.09349999999999997200, 0.01447267365206879700 ) ;
#113 = CC_DESIGN_APPROVAL ( #89, ( #34 ) ) ;
#114 = EDGE_CURVE ( 'NONE', #184, #19, #17, .T. ) ;
#115 = DIRECTION ( 'NONE',  ( 0.0000000000000000000, 0.0000000000000000000, 1.000000000000000000 ) ) ;
#116 = DIRECTION ( 'NONE',  ( -1.000000000000000000, 0.0000000000000000000, 0.0000000000000000000 ) ) ;
#117 = CC_DESIGN_PERSON_AND_ORGANIZATION_ASSIGNMENT ( #230, #69, ( #58 ) ) ;
#118 = ORIENTED_EDGE ( 'NONE', *, *, #146, .T. ) ;
#119 = ORIENTED_EDGE ( 'NONE', *, *, #165, .F. ) ;
#120 = DIRECTION ( 'NONE',  ( -0.0000000000000000000, -1.000000000000000000, -0.0000000000000000000 ) ) ;
#121 = AXIS2_PLACEMENT_3D ( 'NONE', #282, #107, #311 ) ;
#122 = ORIENTED_EDGE ( 'NONE', *, *, #224, .T. ) ;
#123 = SHAPE_DEFINITION_REPRESENTATION ( #61, #64 ) ;
#124 = DATE_AND_TIME ( #199, #275 ) ;
#125 = FACE_OUTER_BOUND ( 'NONE', #306, .T. ) ;
#126 = CARTESIAN_POINT ( 'NONE',  ( 0.0000000000000000000, -0.5600000000000000500, 0.0000000000000000000 ) ) ;
#127 = CARTESIAN_POINT ( 'NONE',  ( 0.0000000000000000000, -0.5600000000000000500, 0.0000000000000000000 ) ) ;
#128 = PERSON_AND_ORGANIZATION ( #371, #43 ) ;
#129 = CIRCLE ( 'NONE', #295, 0.1249999999999999900 ) ;
#130 = CARTESIAN_POINT ( 'NONE',  ( 0.0000000000000000000, 0.3799999999999999500, 0.0000000000000000000 ) ) ;
#131 = DATE_TIME_ROLE ( 'classification_date' ) ;
#132 = CC_DESIGN_SECURITY_CLASSIFICATION ( #34, ( #58 ) ) ;
#133 = EDGE_CURVE ( 'NONE', #184, #265, #93, .T. ) ;
#134 = CARTESIAN_POINT ( 'NONE',  ( 0.1099306599634515100, 0.4321567416492214700, 0.05949999999999996300 ) ) ;
#135 = UNCERTAINTY_MEASURE_WITH_UNIT (LENGTH_MEASURE( 1.000000000000000100E-005 ), #140, 'distance_accuracy_value', 'NONE');
#136 = ADVANCED_FACE ( 'NONE', ( #231 ), #323, .T. ) ;
#137 = ORIENTED_EDGE ( 'NONE', *, *, #294, .T. ) ;
#138 = CARTESIAN_POINT ( 'NONE',  ( 1.111366970226222900E-017, 0.0000000000000000000, -0.08799999999999999500 ) ) ;
#139 = AXIS2_PLACEMENT_3D ( 'NONE', #252, #78, #284 ) ;
#140 =( CONVERSION_BASED_UNIT ( 'INCH', #300 ) LENGTH_UNIT ( ) NAMED_UNIT ( #309 ) );
#141 = APPROVAL_ROLE ( '' ) ;
#142 = ORIENTED_EDGE ( 'NONE', *, *, #334, .F. ) ;
#143 = DATE_AND_TIME ( #221, #298 ) ;
#144 = CARTESIAN_POINT ( 'NONE',  ( 0.0000000000000000000, 0.4321567416492214700, 0.0000000000000000000 ) ) ;
#145 = PRODUCT_RELATED_PRODUCT_CATEGORY ( 'detail', '', ( #27 ) ) ;
#146 = EDGE_CURVE ( 'NONE', #194, #63, #308, .T. ) ;
#147 = ORIENTED_EDGE ( 'NONE', *, *, #171, .T. ) ;
#148 = PERSON_AND_ORGANIZATION ( #371, #43 ) ;
#149 = FACE_OUTER_BOUND ( 'NONE', #181, .T. ) ;
#150 = DIRECTION ( 'NONE',  ( 1.000000000000000000, 0.0000000000000000000, 0.0000000000000000000 ) ) ;
#151 = DIRECTION ( 'NONE',  ( 1.000000000000000000, -0.0000000000000000000, -0.0000000000000000000 ) ) ;
#152 = AXIS2_PLACEMENT_3D ( 'NONE', #81, #24, #53 ) ;
#153 = CARTESIAN_POINT ( 'NONE',  ( 0.0000000000000000000, 0.3799999999999999500, 0.0000000000000000000 ) ) ;
#154 = AXIS2_PLACEMENT_3D ( 'NONE', #126, #330, #150 ) ;
#155 = DIRECTION ( 'NONE',  ( 1.224646799147353200E-016, 0.0000000000000000000, -1.000000000000000000 ) ) ;
#156 = APPROVAL_ROLE ( '' ) ;
#157 = ADVANCED_FACE ( 'NONE', ( #149 ), #358, .T. ) ;
#158 = ORIENTED_EDGE ( 'NONE', *, *, #186, .T. ) ;
#159 = LOCAL_TIME ( 15, 4, 50.00000000000000000, #234 ) ;
#160 = ORIENTED_EDGE ( 'NONE', *, *, #55, .F. ) ;
#161 = VECTOR ( 'NONE', #7, 39.37007874015748100 ) ;
#162 = CIRCLE ( 'NONE', #313, 0.1249999999999999900 ) ;
#163 = CYLINDRICAL_SURFACE ( 'NONE', #52, 0.1249999999999999900 ) ;
#164 = ORIENTED_EDGE ( 'NONE', *, *, #133, .F. ) ;
#165 = EDGE_CURVE ( 'NONE', #184, #254, #285, .T. ) ;
#166 = PLANE ( 'NONE',  #139 ) ;
#167 =( NAMED_UNIT ( * ) SI_UNIT ( $, .STERADIAN. ) SOLID_ANGLE_UNIT ( ) );
#168 = CARTESIAN_POINT ( 'NONE',  ( 0.0000000000000000000, -0.5600000000000000500, 0.0000000000000000000 ) ) ;
#169 = DATE_TIME_ROLE ( 'creation_date' ) ;
#170 = DIRECTION ( 'NONE',  ( 0.0000000000000000000, 0.0000000000000000000, 1.000000000000000000 ) ) ;
#171 = EDGE_CURVE ( 'NONE', #83, #74, #129, .T. ) ;
#172 = CALENDAR_DATE ( 2016, 29, 6 ) ;
#173 = CIRCLE ( 'NONE', #154, 1.000000000000000000 ) ;
#174 = ORIENTED_EDGE ( 'NONE', *, *, #35, .F. ) ;
#175 = ORIENTED_EDGE ( 'NONE', *, *, #90, .T. ) ;
#176 = VECTOR ( 'NONE', #245, 39.37007874015748100 ) ;
#177 = EDGE_LOOP ( 'NONE', ( #340, #175, #361, #239 ) ) ;
#178 = DIRECTION ( 'NONE',  ( 0.0000000000000000000, 0.0000000000000000000, 1.000000000000000000 ) ) ;
#179 = AXIS2_PLACEMENT_3D ( 'NONE', #242, #68, #274 ) ;
#180 = AXIS2_PLACEMENT_3D ( 'NONE', #211, #368, #202 ) ;
#181 = EDGE_LOOP ( 'NONE', ( #105, #147, #329, #362, #1 ) ) ;
#182 = APPROVAL_DATE_TIME ( #259, #354 ) ;
#183 = CIRCLE ( 'NONE', #121, 0.1249999999999999900 ) ;
#184 = VERTEX_POINT ( 'NONE', #299 ) ;
#185 = ORIENTED_EDGE ( 'NONE', *, *, #114, .T. ) ;
#186 = EDGE_CURVE ( 'NONE', #104, #215, #352, .T. ) ;
#187 = DIRECTION ( 'NONE',  ( 0.0000000000000000000, 0.0000000000000000000, 1.000000000000000000 ) ) ;
#188 = EDGE_LOOP ( 'NONE', ( #185, #106, #18, #98, #119 ) ) ;
#189 = APPROVAL_PERSON_ORGANIZATION ( #268, #354, #141 ) ;
#190 = CARTESIAN_POINT ( 'NONE',  ( 1.145044757202774900E-017, 0.3799999999999999500, -0.09349999999999997200 ) ) ;
#191 = CIRCLE ( 'NONE', #293, 0.9939392587074926700 ) ;
#192 = EDGE_CURVE ( 'NONE', #194, #251, #206, .T. ) ;
#193 = CARTESIAN_POINT ( 'NONE',  ( -0.09349999999999997200, 0.3799999999999999500, 0.0000000000000000000 ) ) ;
#194 = VERTEX_POINT ( 'NONE', #9 ) ;
#195 = CARTESIAN_POINT ( 'NONE',  ( 1.530808498934191200E-017, 0.4321567416492214700, -0.1249999999999999900 ) ) ;
#196 = CLOSED_SHELL ( 'NONE', ( #219, #341, #157, #360, #15, #136, #246, #280, #222, #102 ) ) ;
#197 = AXIS2_PLACEMENT_3D ( 'NONE', #333, #155, #359 ) ;
#198 = APPLICATION_PROTOCOL_DEFINITION ( 'international standard', 'config_control_design', 1994, #226 ) ;
#199 = CALENDAR_DATE ( 2016, 29, 6 ) ;
#200 = FACE_OUTER_BOUND ( 'NONE', #177, .T. ) ;
#201 = DIRECTION ( 'NONE',  ( 1.000000000000000000, 0.0000000000000000000, 0.0000000000000000000 ) ) ;
#202 = DIRECTION ( 'NONE',  ( 0.0000000000000000000, 0.0000000000000000000, 1.000000000000000000 ) ) ;
#203 = MANIFOLD_SOLID_BREP ( 'Cut-Extrude1', #196 ) ;
#204 = CARTESIAN_POINT ( 'NONE',  ( 1.145044757202774900E-017, 0.3799999999999999500, -0.09349999999999997200 ) ) ;
#205 = EDGE_CURVE ( 'NONE', #65, #342, #277, .T. ) ;
#206 = CIRCLE ( 'NONE', #197, 1.000000000000000000 ) ;
#207 = ORIENTED_EDGE ( 'NONE', *, *, #314, .T. ) ;
#208 = ORIENTED_EDGE ( 'NONE', *, *, #192, .F. ) ;
#209 = DIRECTION ( 'NONE',  ( 0.0000000000000000000, 0.0000000000000000000, 1.000000000000000000 ) ) ;
#210 = DIRECTION ( 'NONE',  ( -0.0000000000000000000, 1.000000000000000000, -0.0000000000000000000 ) ) ;
#211 = CARTESIAN_POINT ( 'NONE',  ( 0.0000000000000000000, 0.3799999999999999500, 0.0000000000000000000 ) ) ;
#212 = AXIS2_PLACEMENT_3D ( 'NONE', #238, #258, #80 ) ;
#213 = DIRECTION ( 'NONE',  ( 1.000000000000000000, 0.0000000000000000000, 0.0000000000000000000 ) ) ;
#214 = AXIS2_PLACEMENT_3D ( 'NONE', #144, #349, #178 ) ;
#215 = VERTEX_POINT ( 'NONE', #190 ) ;
#216 = DIRECTION ( 'NONE',  ( 1.000000000000000000, -0.0000000000000000000, -0.0000000000000000000 ) ) ;
#217 =( GEOMETRIC_REPRESENTATION_CONTEXT ( 3 ) GLOBAL_UNCERTAINTY_ASSIGNED_CONTEXT ( ( #135 ) ) GLOBAL_UNIT_ASSIGNED_CONTEXT ( ( #140, #343, #167 ) ) REPRESENTATION_CONTEXT ( 'NONE', 'WORKASPACE' ) );
#218 = DIRECTION ( 'NONE',  ( 0.0000000000000000000, -0.0000000000000000000, -1.000000000000000000 ) ) ;
#219 = ADVANCED_FACE ( 'NONE', ( #51 ), #112, .T. ) ;
#220 = EDGE_LOOP ( 'NONE', ( #94, #264, #31, #60 ) ) ;
#221 = CALENDAR_DATE ( 2016, 29, 6 ) ;
#222 = ADVANCED_FACE ( 'NONE', ( #45 ), #336, .T. ) ;
#223 = DESIGN_CONTEXT ( 'detailed design', #287, 'design' ) ;
#224 = EDGE_CURVE ( 'NONE', #63, #270, #36, .T. ) ;
#225 = DIRECTION ( 'NONE',  ( -0.0000000000000000000, 1.000000000000000000, -0.0000000000000000000 ) ) ;
#226 = APPLICATION_CONTEXT ( 'configuration controlled 3d designs of mechanical parts and assemblies' ) ;
#227 = DIRECTION ( 'NONE',  ( 0.0000000000000000000, -3.552443975703927800E-014, 1.000000000000000000 ) ) ;
#228 = CARTESIAN_POINT ( 'NONE',  ( 0.1099306599634515100, 0.3799999999999999500, 0.05949999999999996300 ) ) ;
#229 = ORIENTED_EDGE ( 'NONE', *, *, #314, .F. ) ;
#230 = PERSON_AND_ORGANIZATION ( #371, #43 ) ;
#231 = FACE_OUTER_BOUND ( 'NONE', #327, .T. ) ;
#232 = AXIS2_PLACEMENT_3D ( 'NONE', #130, #42, #288 ) ;
#233 = AXIS2_PLACEMENT_3D ( 'NONE', #262, #116, #320 ) ;
#234 = COORDINATED_UNIVERSAL_TIME_OFFSET ( 8, 0, .BEHIND. ) ;
#235 = LINE ( 'NONE', #355, #161 ) ;
#236 = CIRCLE ( 'NONE', #77, 0.09349999999999997200 ) ;
#237 = LINE ( 'NONE', #272, #88 ) ;
#238 = CARTESIAN_POINT ( 'NONE',  ( 0.0000000000000000000, 0.0000000000000000000, 0.0000000000000000000 ) ) ;
#239 = ORIENTED_EDGE ( 'NONE', *, *, #133, .T. ) ;
#240 = DIRECTION ( 'NONE',  ( -0.0000000000000000000, 1.000000000000000000, -0.0000000000000000000 ) ) ;
#241 = EDGE_CURVE ( 'NONE', #254, #270, #191, .T. ) ;
#242 = CARTESIAN_POINT ( 'NONE',  ( 0.0000000000000000000, 0.3799999999999999500, 0.0000000000000000000 ) ) ;
#243 = APPROVAL_ROLE ( '' ) ;
#244 = DIRECTION ( 'NONE',  ( 0.0000000000000000000, 1.690331176060283100E-014, 1.000000000000000000 ) ) ;
#245 = DIRECTION ( 'NONE',  ( -0.0000000000000000000, -1.000000000000000000, -0.0000000000000000000 ) ) ;
#246 = ADVANCED_FACE ( 'NONE', ( #125 ), #248, .T. ) ;
#247 = LOCAL_TIME ( 15, 4, 50.00000000000000000, #25 ) ;
#248 = CYLINDRICAL_SURFACE ( 'NONE', #351, 0.1249999999999999900 ) ;
#249 = ORIENTED_EDGE ( 'NONE', *, *, #365, .F. ) ;
#250 = LINE ( 'NONE', #281, #176 ) ;
#251 = VERTEX_POINT ( 'NONE', #101 ) ;
#252 = CARTESIAN_POINT ( 'NONE',  ( 0.0000000000000000000, -5.388445916248353700E-018, 0.0000000000000000000 ) ) ;
#253 = AXIS2_PLACEMENT_3D ( 'NONE', #347, #317, #170 ) ;
#254 = VERTEX_POINT ( 'NONE', #304 ) ;
#255 = AXIS2_PLACEMENT_3D ( 'NONE', #289, #57, #209 ) ;
#256 = MECHANICAL_CONTEXT ( 'NONE', #226, 'mechanical' ) ;
#257 = ORIENTED_EDGE ( 'NONE', *, *, #334, .T. ) ;
#258 = DIRECTION ( 'NONE',  ( -0.0000000000000000000, 1.000000000000000000, -0.0000000000000000000 ) ) ;
#259 = DATE_AND_TIME ( #335, #33 ) ;
#260 = FACE_BOUND ( 'NONE', #332, .T. ) ;
#261 = CARTESIAN_POINT ( 'NONE',  ( 0.0000000000000000000, 0.3799999999999999500, 0.0000000000000000000 ) ) ;
#262 = CARTESIAN_POINT ( 'NONE',  ( 0.1099306599634515100, 0.4799999999999999800, 0.0000000000000000000 ) ) ;
#263 = ORIENTED_EDGE ( 'NONE', *, *, #241, .T. ) ;
#264 = ORIENTED_EDGE ( 'NONE', *, *, #35, .T. ) ;
#265 = VERTEX_POINT ( 'NONE', #279 ) ;
#266 = CARTESIAN_POINT ( 'NONE',  ( 0.1099306599634515100, 0.4799999999999999800, -0.05949999999999996300 ) ) ;
#267 = ORIENTED_EDGE ( 'NONE', *, *, #205, .F. ) ;
#268 = PERSON_AND_ORGANIZATION ( #371, #43 ) ;
#269 = VECTOR ( 'NONE', #72, 39.37007874015748900 ) ;
#270 = VERTEX_POINT ( 'NONE', #134 ) ;
#271 = CARTESIAN_POINT ( 'NONE',  ( 1.530808498934191200E-017, 0.3799999999999999500, -0.1249999999999999900 ) ) ;
#272 = CARTESIAN_POINT ( 'NONE',  ( 0.1099306599634515100, 0.3799999999999999500, 0.0000000000000000000 ) ) ;
#273 = AXIS2_PLACEMENT_3D ( 'NONE', #82, #290, #115 ) ;
#274 = DIRECTION ( 'NONE',  ( 0.0000000000000000000, 0.0000000000000000000, 1.000000000000000000 ) ) ;
#275 = LOCAL_TIME ( 15, 4, 50.00000000000000000, #350 ) ;
#276 = AXIS2_PLACEMENT_3D ( 'NONE', #168, #364, #201 ) ;
#277 = CIRCLE ( 'NONE', #212, 0.08799999999999999500 ) ;
#278 = PERSON_AND_ORGANIZATION_ROLE ( 'design_supplier' ) ;
#279 = CARTESIAN_POINT ( 'NONE',  ( 0.1099306599634515100, 0.3799999999999999500, -0.05949999999999996300 ) ) ;
#280 = ADVANCED_FACE ( 'NONE', ( #346, #260 ), #339, .T. ) ;
#281 = CARTESIAN_POINT ( 'NONE',  ( 0.1099306599634515100, 0.4799999999999999800, 0.05949999999999996300 ) ) ;
#282 = CARTESIAN_POINT ( 'NONE',  ( 0.0000000000000000000, 0.4321567416492214700, 0.0000000000000000000 ) ) ;
#283 = DIRECTION ( 'NONE',  ( -0.0000000000000000000, 1.000000000000000000, -0.0000000000000000000 ) ) ;
#284 = DIRECTION ( 'NONE',  ( 0.0000000000000000000, -0.0000000000000000000, -1.000000000000000000 ) ) ;
#285 = CIRCLE ( 'NONE', #315, 0.9939392587074926700 ) ;
#286 = FACE_OUTER_BOUND ( 'NONE', #85, .T. ) ;
#287 = APPLICATION_CONTEXT ( 'configuration controlled 3d designs of mechanical parts and assemblies' ) ;
#288 = DIRECTION ( 'NONE',  ( 0.0000000000000000000, 0.0000000000000000000, 1.000000000000000000 ) ) ;
#289 = CARTESIAN_POINT ( 'NONE',  ( 0.0000000000000000000, 0.4321567416492214700, 0.0000000000000000000 ) ) ;
#290 = DIRECTION ( 'NONE',  ( -0.0000000000000000000, 1.000000000000000000, -0.0000000000000000000 ) ) ;
#291 = PLANE ( 'NONE',  #233 ) ;
#292 = ORIENTED_EDGE ( 'NONE', *, *, #353, .T. ) ;
#293 = AXIS2_PLACEMENT_3D ( 'NONE', #348, #216, #244 ) ;
#294 = EDGE_CURVE ( 'NONE', #342, #104, #5, .T. ) ;
#295 = AXIS2_PLACEMENT_3D ( 'NONE', #153, #357, #187 ) ;
#296 = AXIS2_PLACEMENT_3D ( 'NONE', #97, #67, #50 ) ;
#297 = ORIENTED_EDGE ( 'NONE', *, *, #241, .F. ) ;
#298 = LOCAL_TIME ( 15, 4, 50.00000000000000000, #372 ) ;
#299 = CARTESIAN_POINT ( 'NONE',  ( 0.1099306599634515100, 0.4321567416492214700, -0.05949999999999996300 ) ) ;
#300 = LENGTH_MEASURE_WITH_UNIT ( LENGTH_MEASURE( 0.02539999999999999900 ), #312 );
#301 = CARTESIAN_POINT ( 'NONE',  ( 0.0000000000000000000, 0.0000000000000000000, 0.08799999999999999500 ) ) ;
#302 = CARTESIAN_POINT ( 'NONE',  ( 0.0000000000000000000, 0.0000000000000000000, 0.0000000000000000000 ) ) ;
#303 = PERSON_AND_ORGANIZATION_ROLE ( 'classification_officer' ) ;
#304 = CARTESIAN_POINT ( 'NONE',  ( 0.1099306599634515100, 0.4339392587074925600, 0.0000000000000000000 ) ) ;
#305 = CARTESIAN_POINT ( 'NONE',  ( 0.0000000000000000000, 0.8978661764158524200, 0.0000000000000000000 ) ) ;
#306 = EDGE_LOOP ( 'NONE', ( #160, #207, #142, #325 ) ) ;
#307 = APPROVAL_DATE_TIME ( #2, #73 ) ;
#308 = CIRCLE ( 'NONE', #255, 0.1249999999999999900 ) ;
#309 = DIMENSIONAL_EXPONENTS ( 1.000000000000000000, 0.0000000000000000000, 0.0000000000000000000, 0.0000000000000000000, 0.0000000000000000000, 0.0000000000000000000, 0.0000000000000000000 ) ;
#310 = ORIENTED_EDGE ( 'NONE', *, *, #165, .T. ) ;
#311 = DIRECTION ( 'NONE',  ( 0.0000000000000000000, 0.0000000000000000000, 1.000000000000000000 ) ) ;
#312 =( LENGTH_UNIT ( ) NAMED_UNIT ( * ) SI_UNIT ( $, .METRE. ) );
#313 = AXIS2_PLACEMENT_3D ( 'NONE', #261, #210, #40 ) ;
#314 = EDGE_CURVE ( 'NONE', #74, #96, #162, .T. ) ;
#315 = AXIS2_PLACEMENT_3D ( 'NONE', #331, #151, #227 ) ;
#316 = APPROVAL_STATUS ( 'not_yet_approved' ) ;
#317 = DIRECTION ( 'NONE',  ( -0.0000000000000000000, 1.000000000000000000, -0.0000000000000000000 ) ) ;
#318 = CC_DESIGN_PERSON_AND_ORGANIZATION_ASSIGNMENT ( #344, #79, ( #27 ) ) ;
#319 = DIRECTION ( 'NONE',  ( -0.0000000000000000000, 1.000000000000000000, -0.0000000000000000000 ) ) ;
#320 = DIRECTION ( 'NONE',  ( 0.0000000000000000000, 0.0000000000000000000, 1.000000000000000000 ) ) ;
#321 = CARTESIAN_POINT ( 'NONE',  ( 0.0000000000000000000, 0.3799999999999999500, 0.1249999999999999900 ) ) ;
#322 = APPROVAL_PERSON_ORGANIZATION ( #16, #73, #243 ) ;
#323 = SPHERICAL_SURFACE ( 'NONE', #276, 1.000000000000000000 ) ;
#324 = VECTOR ( 'NONE', #59, 39.37007874015748900 ) ;
#325 = ORIENTED_EDGE ( 'NONE', *, *, #224, .F. ) ;
#326 = VECTOR ( 'NONE', #22, 39.37007874015748100 ) ;
#327 = EDGE_LOOP ( 'NONE', ( #208, #118, #122, #297, #21 ) ) ;
#328 = ORIENTED_EDGE ( 'NONE', *, *, #353, .F. ) ;
#329 = ORIENTED_EDGE ( 'NONE', *, *, #55, .T. ) ;
#330 = DIRECTION ( 'NONE',  ( 0.0000000000000000000, 0.0000000000000000000, 1.000000000000000000 ) ) ;
#331 = CARTESIAN_POINT ( 'NONE',  ( 0.1099306599634515100, -0.5600000000000000500, 0.0000000000000000000 ) ) ;
#332 = EDGE_LOOP ( 'NONE', ( #158, #39 ) ) ;
#333 = CARTESIAN_POINT ( 'NONE',  ( 0.0000000000000000000, -0.5600000000000000500, 0.0000000000000000000 ) ) ;
#334 = EDGE_CURVE ( 'NONE', #270, #96, #250, .T. ) ;
#335 = CALENDAR_DATE ( 2016, 29, 6 ) ;
#336 = CONICAL_SURFACE ( 'NONE', #253, 0.09349999999999997200, 0.01447267365206879700 ) ;
#337 = APPROVAL_STATUS ( 'not_yet_approved' ) ;
#338 = PRODUCT_DEFINITION ( 'UNKNOWN', '', #58, #223 ) ;
#339 = PLANE ( 'NONE',  #363 ) ;
#340 = ORIENTED_EDGE ( 'NONE', *, *, #71, .T. ) ;
#341 = ADVANCED_FACE ( 'NONE', ( #200 ), #163, .T. ) ;
#342 = VERTEX_POINT ( 'NONE', #301 ) ;
#343 =( NAMED_UNIT ( * ) PLANE_ANGLE_UNIT ( ) SI_UNIT ( $, .RADIAN. ) );
#344 = PERSON_AND_ORGANIZATION ( #371, #43 ) ;
#345 = PERSON_AND_ORGANIZATION_ROLE ( 'creator' ) ;
#346 = FACE_OUTER_BOUND ( 'NONE', #29, .T. ) ;
#347 = CARTESIAN_POINT ( 'NONE',  ( 0.0000000000000000000, 0.3799999999999999500, 0.0000000000000000000 ) ) ;
#348 = CARTESIAN_POINT ( 'NONE',  ( 0.1099306599634515100, -0.5600000000000000500, 0.0000000000000000000 ) ) ;
#349 = DIRECTION ( 'NONE',  ( -0.0000000000000000000, 1.000000000000000000, -0.0000000000000000000 ) ) ;
#350 = COORDINATED_UNIVERSAL_TIME_OFFSET ( 8, 0, .BEHIND. ) ;
#351 = AXIS2_PLACEMENT_3D ( 'NONE', #367, #319, #56 ) ;
#352 = CIRCLE ( 'NONE', #179, 0.09349999999999997200 ) ;
#353 = EDGE_CURVE ( 'NONE', #96, #265, #237, .T. ) ;
#354 = APPROVAL ( #316, 'UNSPECIFIED' ) ;
#355 = CARTESIAN_POINT ( 'NONE',  ( 1.530808498934191200E-017, 0.8978661764158524200, -0.1249999999999999900 ) ) ;
#356 = DIRECTION ( 'NONE',  ( 0.0000000000000000000, 0.0000000000000000000, -1.000000000000000000 ) ) ;
#357 = DIRECTION ( 'NONE',  ( -0.0000000000000000000, 1.000000000000000000, -0.0000000000000000000 ) ) ;
#358 = CYLINDRICAL_SURFACE ( 'NONE', #152, 0.1249999999999999900 ) ;
#359 = DIRECTION ( 'NONE',  ( -1.000000000000000000, 0.0000000000000000000, -1.224646799147353200E-016 ) ) ;
#360 = ADVANCED_FACE ( 'NONE', ( #20 ), #95, .T. ) ;
#361 = ORIENTED_EDGE ( 'NONE', *, *, #114, .F. ) ;
#362 = ORIENTED_EDGE ( 'NONE', *, *, #146, .F. ) ;
#363 = AXIS2_PLACEMENT_3D ( 'NONE', #193, #14, #218 ) ;
#364 = DIRECTION ( 'NONE',  ( 0.0000000000000000000, 0.0000000000000000000, -1.000000000000000000 ) ) ;
#365 = EDGE_CURVE ( 'NONE', #342, #65, #6, .T. ) ;
#366 = APPROVAL_STATUS ( 'not_yet_approved' ) ;
#367 = CARTESIAN_POINT ( 'NONE',  ( 0.0000000000000000000, 0.8978661764158524200, 0.0000000000000000000 ) ) ;
#368 = DIRECTION ( 'NONE',  ( -0.0000000000000000000, 1.000000000000000000, -0.0000000000000000000 ) ) ;
#369 = CC_DESIGN_APPROVAL ( #354, ( #338 ) ) ;
#370 = EDGE_LOOP ( 'NONE', ( #174, #109, #137, #38 ) ) ;
#371 = PERSON ( 'UNSPECIFIED', 'UNSPECIFIED', 'UNSPECIFIED', ('UNSPECIFIED'), ('UNSPECIFIED'), ('UNSPECIFIED') ) ;
#372 = COORDINATED_UNIVERSAL_TIME_OFFSET ( 8, 0, .BEHIND. ) ;
#373 = ORIENTED_EDGE ( 'NONE', *, *, #71, .F. ) ;
ENDSEC;
END-ISO-10303-21;
