ISO-10303-21;
HEADER;
FILE_DESCRIPTION (( 'STEP AP203' ),
    '1' );
FILE_NAME ('7611D2-L.STEP',
    '2016-06-29T22:03:59',
    ( '' ),
    ( '' ),
    'SwSTEP 2.0',
    'SolidWorks 2014',
    '' );
FILE_SCHEMA (( 'CONFIG_CONTROL_DESIGN' ));
ENDSEC;

DATA;
#1 = EDGE_LOOP ( 'NONE', ( #98, #313, #16, #214 ) ) ;
#2 = VECTOR ( 'NONE', #332, 39.37007874015748100 ) ;
#3 = PERSON_AND_ORGANIZATION ( #6, #178 ) ;
#4 = DIRECTION ( 'NONE',  ( 1.000000000000000000, 0.0000000000000000000, -0.0000000000000000000 ) ) ;
#5 = COORDINATED_UNIVERSAL_TIME_OFFSET ( 8, 0, .BEHIND. ) ;
#6 = PERSON ( 'UNSPECIFIED', 'UNSPECIFIED', 'UNSPECIFIED', ('UNSPECIFIED'), ('UNSPECIFIED'), ('UNSPECIFIED') ) ;
#7 = DIRECTION ( 'NONE',  ( 0.0000000000000000000, 0.0000000000000000000, 1.000000000000000000 ) ) ;
#8 = VERTEX_POINT ( 'NONE', #247 ) ;
#9 = DIRECTION ( 'NONE',  ( 0.0000000000000000000, 0.0000000000000000000, 1.000000000000000000 ) ) ;
#10 = CARTESIAN_POINT ( 'NONE',  ( 0.1099306599634514000, 1.060000000000000300, 0.0000000000000000000 ) ) ;
#11 = CIRCLE ( 'NONE', #282, 0.9939392587074927800 ) ;
#12 = DIRECTION ( 'NONE',  ( 0.0000000000000000000, 0.0000000000000000000, 1.000000000000000000 ) ) ;
#13 = DIRECTION ( 'NONE',  ( 0.0000000000000000000, 0.0000000000000000000, 1.000000000000000000 ) ) ;
#14 = DATE_AND_TIME ( #76, #156 ) ;
#15 = AXIS2_PLACEMENT_3D ( 'NONE', #258, #139, #333 ) ;
#16 = ORIENTED_EDGE ( 'NONE', *, *, #138, .F. ) ;
#17 = LINE ( 'NONE', #334, #2 ) ;
#18 = APPROVAL_ROLE ( '' ) ;
#19 = DIRECTION ( 'NONE',  ( 0.0000000000000000000, 0.0000000000000000000, -1.000000000000000000 ) ) ;
#20 = AXIS2_PLACEMENT_3D ( 'NONE', #61, #254, #88 ) ;
#21 = VERTEX_POINT ( 'NONE', #300 ) ;
#22 = ORIENTED_EDGE ( 'NONE', *, *, #226, .T. ) ;
#23 = PERSON_AND_ORGANIZATION ( #6, #178 ) ;
#24 = DIRECTION ( 'NONE',  ( -0.0000000000000000000, 1.000000000000000000, -0.0000000000000000000 ) ) ;
#25 = VERTEX_POINT ( 'NONE', #107 ) ;
#26 = DIMENSIONAL_EXPONENTS ( 1.000000000000000000, 0.0000000000000000000, 0.0000000000000000000, 0.0000000000000000000, 0.0000000000000000000, 0.0000000000000000000, 0.0000000000000000000 ) ;
#27 = DIRECTION ( 'NONE',  ( -0.0000000000000000000, 1.000000000000000000, -0.0000000000000000000 ) ) ;
#28 = DIRECTION ( 'NONE',  ( -0.0000000000000000000, 1.000000000000000000, -0.0000000000000000000 ) ) ;
#29 = MECHANICAL_CONTEXT ( 'NONE', #173, 'mechanical' ) ;
#30 = VERTEX_POINT ( 'NONE', #83 ) ;
#31 = VECTOR ( 'NONE', #19, 39.37007874015748100 ) ;
#32 = ORIENTED_EDGE ( 'NONE', *, *, #234, .T. ) ;
#33 = CARTESIAN_POINT ( 'NONE',  ( 0.0000000000000000000, 0.9600000000000003000, 0.0000000000000000000 ) ) ;
#34 = DATE_TIME_ROLE ( 'creation_date' ) ;
#35 = EDGE_LOOP ( 'NONE', ( #322, #39, #191, #177 ) ) ;
#36 = CARTESIAN_POINT ( 'NONE',  ( 0.0000000000000000000, 0.9599999999999999600, 0.0000000000000000000 ) ) ;
#37 = LINE ( 'NONE', #40, #31 ) ;
#38 = AXIS2_PLACEMENT_3D ( 'NONE', #54, #27, #9 ) ;
#39 = ORIENTED_EDGE ( 'NONE', *, *, #99, .F. ) ;
#40 = CARTESIAN_POINT ( 'NONE',  ( 0.1099306599634514000, 0.9600000000000001900, 0.0000000000000000000 ) ) ;
#41 = VERTEX_POINT ( 'NONE', #85 ) ;
#42 = COORDINATED_UNIVERSAL_TIME_OFFSET ( 8, 0, .BEHIND. ) ;
#43 = ORIENTED_EDGE ( 'NONE', *, *, #222, .T. ) ;
#44 = FACE_OUTER_BOUND ( 'NONE', #81, .T. ) ;
#45 = CYLINDRICAL_SURFACE ( 'NONE', #135, 0.1249999999999999200 ) ;
#46 = DIRECTION ( 'NONE',  ( -0.0000000000000000000, 1.000000000000000000, -0.0000000000000000000 ) ) ;
#47 = LINE ( 'NONE', #250, #263 ) ;
#48 = ORIENTED_EDGE ( 'NONE', *, *, #321, .T. ) ;
#49 = LOCAL_TIME ( 15, 3, 59.00000000000000000, #127 ) ;
#50 = FACE_OUTER_BOUND ( 'NONE', #101, .T. ) ;
#51 = ADVANCED_FACE ( 'NONE', ( #103 ), #276, .T. ) ;
#52 = DIRECTION ( 'NONE',  ( 0.0000000000000000000, -1.000000000000000000, 0.0000000000000000000 ) ) ;
#53 = DIRECTION ( 'NONE',  ( 0.0000000000000000000, 0.0000000000000000000, 1.000000000000000000 ) ) ;
#54 = CARTESIAN_POINT ( 'NONE',  ( 0.0000000000000000000, 0.9599999999999999600, 0.0000000000000000000 ) ) ;
#55 = DIRECTION ( 'NONE',  ( -1.000000000000000000, 0.0000000000000000000, 0.0000000000000000000 ) ) ;
#56 = ORIENTED_EDGE ( 'NONE', *, *, #164, .F. ) ;
#57 = DESIGN_CONTEXT ( 'detailed design', #154, 'design' ) ;
#58 = CARTESIAN_POINT ( 'NONE',  ( 0.0000000000000000000, 0.9600000000000003000, 0.0000000000000000000 ) ) ;
#59 = DATE_AND_TIME ( #133, #215 ) ;
#60 = FACE_OUTER_BOUND ( 'NONE', #246, .T. ) ;
#61 = CARTESIAN_POINT ( 'NONE',  ( 0.0000000000000000000, 0.02000000000000005900, -1.365923996832131600E-016 ) ) ;
#62 = AXIS2_PLACEMENT_3D ( 'NONE', #202, #24, #106 ) ;
#63 = APPROVAL_DATE_TIME ( #134, #220 ) ;
#64 = DIRECTION ( 'NONE',  ( 0.0000000000000000000, 0.0000000000000000000, 1.000000000000000000 ) ) ;
#65 = CLOSED_SHELL ( 'NONE', ( #192, #328, #296, #320, #51, #201, #221, #74, #301, #80 ) ) ;
#66 = CONICAL_SURFACE ( 'NONE', #260, 0.09349999999999991700, 0.01406157313853620900 ) ;
#67 = APPROVAL_ROLE ( '' ) ;
#68 = APPROVAL_DATE_TIME ( #145, #118 ) ;
#69 = LENGTH_MEASURE_WITH_UNIT ( LENGTH_MEASURE( 0.02539999999999999900 ), #309 );
#70 = APPROVAL_PERSON_ORGANIZATION ( #150, #220, #67 ) ;
#71 = DIRECTION ( 'NONE',  ( 0.0000000000000000000, 0.0000000000000000000, 1.000000000000000000 ) ) ;
#72 = DIRECTION ( 'NONE',  ( 0.0000000000000000000, 0.0000000000000000000, 1.000000000000000000 ) ) ;
#73 = EDGE_LOOP ( 'NONE', ( #95, #197, #286 ) ) ;
#74 = ADVANCED_FACE ( 'NONE', ( #104, #187 ), #171, .T. ) ;
#75 = VECTOR ( 'NONE', #318, 39.37007874015748100 ) ;
#76 = CALENDAR_DATE ( 2016, 29, 6 ) ;
#77 = AXIS2_PLACEMENT_3D ( 'NONE', #249, #4, #194 ) ;
#78 = PRODUCT ( '7611D2-L', '7611D2-L', '', ( #29 ) ) ;
#79 = CC_DESIGN_PERSON_AND_ORGANIZATION_ASSIGNMENT ( #97, #231, ( #78 ) ) ;
#80 = ADVANCED_FACE ( 'NONE', ( #60 ), #229, .F. ) ;
#81 = EDGE_LOOP ( 'NONE', ( #22, #251, #56, #262 ) ) ;
#82 = CIRCLE ( 'NONE', #315, 0.1249999999999999200 ) ;
#83 = CARTESIAN_POINT ( 'NONE',  ( 0.0000000000000000000, 0.9599999999999999600, 0.09349999999999991700 ) ) ;
#84 = EDGE_CURVE ( 'NONE', #30, #8, #273, .T. ) ;
#85 = CARTESIAN_POINT ( 'NONE',  ( 0.1099306599634514000, 1.012156741649221600, 0.05950000000000001800 ) ) ;
#86 =( CONVERSION_BASED_UNIT ( 'INCH', #69 ) LENGTH_UNIT ( ) NAMED_UNIT ( #26 ) );
#87 = DIRECTION ( 'NONE',  ( 0.0000000000000000000, 0.0000000000000000000, 1.000000000000000000 ) ) ;
#88 = DIRECTION ( 'NONE',  ( 1.224646799147353200E-016, 0.0000000000000000000, -1.000000000000000000 ) ) ;
#89 = VERTEX_POINT ( 'NONE', #174 ) ;
#90 = CARTESIAN_POINT ( 'NONE',  ( 1.530808498934190300E-017, 0.9600000000000003000, -0.1249999999999999200 ) ) ;
#91 = AXIS2_PLACEMENT_3D ( 'NONE', #331, #110, #303 ) ;
#92 = PERSON_AND_ORGANIZATION_ROLE ( 'design_supplier' ) ;
#93 = PRODUCT_DEFINITION ( 'UNKNOWN', '', #200, #57 ) ;
#94 = CARTESIAN_POINT ( 'NONE',  ( 0.0000000000000000000, 1.012156741649221600, 0.0000000000000000000 ) ) ;
#95 = ORIENTED_EDGE ( 'NONE', *, *, #321, .F. ) ;
#96 = DIRECTION ( 'NONE',  ( 0.0000000000000000000, 0.0000000000000000000, 1.000000000000000000 ) ) ;
#97 = PERSON_AND_ORGANIZATION ( #6, #178 ) ;
#98 = ORIENTED_EDGE ( 'NONE', *, *, #248, .F. ) ;
#99 = EDGE_CURVE ( 'NONE', #294, #121, #126, .T. ) ;
#100 = CC_DESIGN_APPROVAL ( #341, ( #285 ) ) ;
#101 = EDGE_LOOP ( 'NONE', ( #311, #48, #227, #130, #243 ) ) ;
#102 = VECTOR ( 'NONE', #218, 39.37007874015748900 ) ;
#103 = FACE_OUTER_BOUND ( 'NONE', #188, .T. ) ;
#104 = FACE_OUTER_BOUND ( 'NONE', #35, .T. ) ;
#105 = ORIENTED_EDGE ( 'NONE', *, *, #185, .F. ) ;
#106 = DIRECTION ( 'NONE',  ( 0.0000000000000000000, 0.0000000000000000000, 1.000000000000000000 ) ) ;
#107 = CARTESIAN_POINT ( 'NONE',  ( 0.0000000000000000000, 0.0000000000000000000, 0.07999999999999996000 ) ) ;
#108 = ORIENTED_EDGE ( 'NONE', *, *, #237, .F. ) ;
#109 = DIRECTION ( 'NONE',  ( -0.0000000000000000000, 1.000000000000000000, -0.0000000000000000000 ) ) ;
#110 = DIRECTION ( 'NONE',  ( 0.0000000000000000000, -1.000000000000000000, 0.0000000000000000000 ) ) ;
#111 = CARTESIAN_POINT ( 'NONE',  ( 0.1099306599634514000, 0.02000000000000005900, -1.365923996832131600E-016 ) ) ;
#112 =( NAMED_UNIT ( * ) SI_UNIT ( $, .STERADIAN. ) SOLID_ANGLE_UNIT ( ) );
#113 = VERTEX_POINT ( 'NONE', #208 ) ;
#114 = DIRECTION ( 'NONE',  ( 0.0000000000000000000, 0.0000000000000000000, 1.000000000000000000 ) ) ;
#115 = CIRCLE ( 'NONE', #230, 0.1249999999999999200 ) ;
#116 = EDGE_LOOP ( 'NONE', ( #327, #43 ) ) ;
#117 =( GEOMETRIC_REPRESENTATION_CONTEXT ( 3 ) GLOBAL_UNCERTAINTY_ASSIGNED_CONTEXT ( ( #281 ) ) GLOBAL_UNIT_ASSIGNED_CONTEXT ( ( #86, #278, #112 ) ) REPRESENTATION_CONTEXT ( 'NONE', 'WORKASPACE' ) );
#118 = APPROVAL ( #182, 'UNSPECIFIED' ) ;
#119 = ORIENTED_EDGE ( 'NONE', *, *, #248, .T. ) ;
#120 = APPROVAL_PERSON_ORGANIZATION ( #199, #341, #348 ) ;
#121 = VERTEX_POINT ( 'NONE', #335 ) ;
#122 = CIRCLE ( 'NONE', #20, 1.000000000000000200 ) ;
#123 = EDGE_CURVE ( 'NONE', #256, #113, #47, .T. ) ;
#124 = CC_DESIGN_SECURITY_CLASSIFICATION ( #285, ( #200 ) ) ;
#125 = PERSON_AND_ORGANIZATION_ROLE ( 'classification_officer' ) ;
#126 = CIRCLE ( 'NONE', #193, 0.1249999999999999200 ) ;
#127 = COORDINATED_UNIVERSAL_TIME_OFFSET ( 8, 0, .BEHIND. ) ;
#128 = VECTOR ( 'NONE', #323, 39.37007874015748900 ) ;
#129 = CIRCLE ( 'NONE', #15, 0.07999999999999996000 ) ;
#130 = ORIENTED_EDGE ( 'NONE', *, *, #166, .T. ) ;
#131 = AXIS2_PLACEMENT_3D ( 'NONE', #140, #52, #205 ) ;
#132 = CARTESIAN_POINT ( 'NONE',  ( 0.0000000000000000000, 0.9599999999999999600, 0.09349999999999991700 ) ) ;
#133 = CALENDAR_DATE ( 2016, 29, 6 ) ;
#134 = DATE_AND_TIME ( #219, #283 ) ;
#135 = AXIS2_PLACEMENT_3D ( 'NONE', #242, #46, #284 ) ;
#136 = CC_DESIGN_APPROVAL ( #118, ( #93 ) ) ;
#137 = CARTESIAN_POINT ( 'NONE',  ( 0.0000000000000000000, 0.9600000000000003000, 0.1249999999999999200 ) ) ;
#138 = EDGE_CURVE ( 'NONE', #41, #121, #351, .T. ) ;
#139 = DIRECTION ( 'NONE',  ( -0.0000000000000000000, 1.000000000000000000, -0.0000000000000000000 ) ) ;
#140 = CARTESIAN_POINT ( 'NONE',  ( 0.0000000000000000000, 0.9600000000000001900, 0.09349999999999991700 ) ) ;
#141 = DIRECTION ( 'NONE',  ( 0.0000000000000000000, -8.881109939259819400E-015, 1.000000000000000000 ) ) ;
#142 = ORIENTED_EDGE ( 'NONE', *, *, #287, .T. ) ;
#143 = FACE_OUTER_BOUND ( 'NONE', #1, .T. ) ;
#144 = DIRECTION ( 'NONE',  ( -0.0000000000000000000, 1.000000000000000000, -0.0000000000000000000 ) ) ;
#145 = DATE_AND_TIME ( #224, #167 ) ;
#146 = APPLICATION_PROTOCOL_DEFINITION ( 'international standard', 'config_control_design', 1994, #173 ) ;
#147 = PRODUCT_RELATED_PRODUCT_CATEGORY ( 'detail', '', ( #78 ) ) ;
#148 = CARTESIAN_POINT ( 'NONE',  ( 0.0000000000000000000, 0.9599999999999999600, 0.0000000000000000000 ) ) ;
#149 = EDGE_CURVE ( 'NONE', #339, #89, #325, .T. ) ;
#150 = PERSON_AND_ORGANIZATION ( #6, #178 ) ;
#151 = CARTESIAN_POINT ( 'NONE',  ( 0.0000000000000000000, 1.012156741649221600, 0.1249999999999998300 ) ) ;
#152 = ORIENTED_EDGE ( 'NONE', *, *, #209, .T. ) ;
#153 = LINE ( 'NONE', #132, #128 ) ;
#154 = APPLICATION_CONTEXT ( 'configuration controlled 3d designs of mechanical parts and assemblies' ) ;
#155 = AXIS2_PLACEMENT_3D ( 'NONE', #148, #307, #114 ) ;
#156 = LOCAL_TIME ( 15, 3, 59.00000000000000000, #42 ) ;
#157 = APPROVAL_STATUS ( 'not_yet_approved' ) ;
#158 = DIRECTION ( 'NONE',  ( -0.0000000000000000000, 1.000000000000000000, -0.0000000000000000000 ) ) ;
#159 = DIRECTION ( 'NONE',  ( -1.000000000000000000, 0.0000000000000000000, 0.0000000000000000000 ) ) ;
#160 = DIRECTION ( 'NONE',  ( -0.0000000000000000000, 1.000000000000000000, -0.0000000000000000000 ) ) ;
#161 = CC_DESIGN_PERSON_AND_ORGANIZATION_ASSIGNMENT ( #3, #213, ( #93 ) ) ;
#162 = CARTESIAN_POINT ( 'NONE',  ( 0.0000000000000000000, 1.682885784211133100, 0.0000000000000000000 ) ) ;
#163 = CYLINDRICAL_SURFACE ( 'NONE', #293, 0.1249999999999999200 ) ;
#164 = EDGE_CURVE ( 'NONE', #277, #113, #115, .T. ) ;
#165 = CARTESIAN_POINT ( 'NONE',  ( 1.062381098260328200E-017, 0.0000000000000000000, -0.07999999999999996000 ) ) ;
#166 = EDGE_CURVE ( 'NONE', #339, #41, #253, .T. ) ;
#167 = LOCAL_TIME ( 15, 3, 59.00000000000000000, #239 ) ;
#168 = DIRECTION ( 'NONE',  ( -0.0000000000000000000, 1.000000000000000000, -0.0000000000000000000 ) ) ;
#169 = EDGE_LOOP ( 'NONE', ( #105, #203, #240, #264 ) ) ;
#170 = CARTESIAN_POINT ( 'NONE',  ( 0.1099306599634514000, 1.012156741649221600, -0.05950000000000001800 ) ) ;
#171 = PLANE ( 'NONE',  #131 ) ;
#172 = AXIS2_PLACEMENT_3D ( 'NONE', #10, #55, #87 ) ;
#173 = APPLICATION_CONTEXT ( 'configuration controlled 3d designs of mechanical parts and assemblies' ) ;
#174 = CARTESIAN_POINT ( 'NONE',  ( 0.0000000000000000000, 1.020000000000000200, -7.536005972584550100E-017 ) ) ;
#175 = ORIENTED_EDGE ( 'NONE', *, *, #204, .F. ) ;
#176 = CC_DESIGN_DATE_AND_TIME_ASSIGNMENT ( #59, #34, ( #93 ) ) ;
#177 = ORIENTED_EDGE ( 'NONE', *, *, #226, .F. ) ;
#178 = ORGANIZATION ( 'UNSPECIFIED', 'UNSPECIFIED', '' ) ;
#179 = EDGE_LOOP ( 'NONE', ( #142, #257, #196, #255 ) ) ;
#180 = EDGE_CURVE ( 'NONE', #121, #21, #37, .T. ) ;
#181 = DIRECTION ( 'NONE',  ( 0.0000000000000000000, 0.0000000000000000000, 1.000000000000000000 ) ) ;
#182 = APPROVAL_STATUS ( 'not_yet_approved' ) ;
#183 = ORIENTED_EDGE ( 'NONE', *, *, #180, .T. ) ;
#184 = CARTESIAN_POINT ( 'NONE',  ( 0.0000000000000000000, 0.02000000000000005900, -1.365923996832131600E-016 ) ) ;
#185 = EDGE_CURVE ( 'NONE', #317, #8, #337, .T. ) ;
#186 = SPHERICAL_SURFACE ( 'NONE', #297, 1.000000000000000200 ) ;
#187 = FACE_BOUND ( 'NONE', #116, .T. ) ;
#188 = EDGE_LOOP ( 'NONE', ( #326, #108 ) ) ;
#189 = PRODUCT_DEFINITION_SHAPE ( 'NONE', 'NONE',  #93 ) ;
#190 = DIRECTION ( 'NONE',  ( -0.0000000000000000000, 1.000000000000000000, -0.0000000000000000000 ) ) ;
#191 = ORIENTED_EDGE ( 'NONE', *, *, #234, .F. ) ;
#192 = ADVANCED_FACE ( 'NONE', ( #210 ), #66, .T. ) ;
#193 = AXIS2_PLACEMENT_3D ( 'NONE', #58, #28, #12 ) ;
#194 = DIRECTION ( 'NONE',  ( 0.0000000000000000000, 0.0000000000000000000, 1.000000000000000000 ) ) ;
#195 = VECTOR ( 'NONE', #306, 39.37007874015748100 ) ;
#196 = ORIENTED_EDGE ( 'NONE', *, *, #84, .F. ) ;
#197 = ORIENTED_EDGE ( 'NONE', *, *, #271, .T. ) ;
#198 = AXIS2_PLACEMENT_3D ( 'NONE', #338, #13, #207 ) ;
#199 = PERSON_AND_ORGANIZATION ( #6, #178 ) ;
#200 = PRODUCT_DEFINITION_FORMATION_WITH_SPECIFIED_SOURCE ( 'ANY', '', #78, .NOT_KNOWN. ) ;
#201 = ADVANCED_FACE ( 'NONE', ( #223 ), #186, .T. ) ;
#202 = CARTESIAN_POINT ( 'NONE',  ( 0.0000000000000000000, 1.682885784211133100, 0.0000000000000000000 ) ) ;
#203 = ORIENTED_EDGE ( 'NONE', *, *, #237, .T. ) ;
#204 = EDGE_CURVE ( 'NONE', #277, #21, #289, .T. ) ;
#205 = DIRECTION ( 'NONE',  ( 0.0000000000000000000, -0.0000000000000000000, -1.000000000000000000 ) ) ;
#206 = CYLINDRICAL_SURFACE ( 'NONE', #62, 0.1249999999999999200 ) ;
#207 = DIRECTION ( 'NONE',  ( 1.000000000000000000, 0.0000000000000000000, 0.0000000000000000000 ) ) ;
#208 = CARTESIAN_POINT ( 'NONE',  ( 1.530808498934189400E-017, 1.012156741649221600, -0.1249999999999999600 ) ) ;
#209 = EDGE_CURVE ( 'NONE', #277, #41, #11, .T. ) ;
#210 = FACE_OUTER_BOUND ( 'NONE', #179, .T. ) ;
#211 = PERSON_AND_ORGANIZATION ( #6, #178 ) ;
#212 = CONICAL_SURFACE ( 'NONE', #38, 0.09349999999999991700, 0.01406157313853620900 ) ;
#213 = PERSON_AND_ORGANIZATION_ROLE ( 'creator' ) ;
#214 = ORIENTED_EDGE ( 'NONE', *, *, #166, .F. ) ;
#215 = LOCAL_TIME ( 15, 3, 59.00000000000000000, #280 ) ;
#216 = AXIS2_PLACEMENT_3D ( 'NONE', #349, #159, #316 ) ;
#217 = CARTESIAN_POINT ( 'NONE',  ( 0.0000000000000000000, 0.9599999999999999600, 0.0000000000000000000 ) ) ;
#218 = DIRECTION ( 'NONE',  ( 1.721989304662013900E-018, 0.9999011377094364500, -0.01406110974903890600 ) ) ;
#219 = CALENDAR_DATE ( 2016, 29, 6 ) ;
#220 = APPROVAL ( #236, 'UNSPECIFIED' ) ;
#221 = ADVANCED_FACE ( 'NONE', ( #143 ), #163, .T. ) ;
#222 = EDGE_CURVE ( 'NONE', #8, #30, #233, .T. ) ;
#223 = FACE_OUTER_BOUND ( 'NONE', #73, .T. ) ;
#224 = CALENDAR_DATE ( 2016, 29, 6 ) ;
#225 = ADVANCED_BREP_SHAPE_REPRESENTATION ( '7611D2-L', ( #347, #198 ), #117 ) ;
#226 = EDGE_CURVE ( 'NONE', #21, #256, #82, .T. ) ;
#227 = ORIENTED_EDGE ( 'NONE', *, *, #149, .F. ) ;
#228 = DIRECTION ( 'NONE',  ( -0.0000000000000000000, 1.000000000000000000, -0.0000000000000000000 ) ) ;
#229 = PLANE ( 'NONE',  #172 ) ;
#230 = AXIS2_PLACEMENT_3D ( 'NONE', #94, #266, #71 ) ;
#231 = PERSON_AND_ORGANIZATION_ROLE ( 'design_owner' ) ;
#232 = CC_DESIGN_APPROVAL ( #220, ( #200 ) ) ;
#233 = CIRCLE ( 'NONE', #336, 0.09349999999999991700 ) ;
#234 = EDGE_CURVE ( 'NONE', #256, #294, #295, .T. ) ;
#235 = DIRECTION ( 'NONE',  ( -0.0000000000000000000, 1.000000000000000000, -0.0000000000000000000 ) ) ;
#236 = APPROVAL_STATUS ( 'not_yet_approved' ) ;
#237 = EDGE_CURVE ( 'NONE', #317, #25, #299, .T. ) ;
#238 = DIRECTION ( 'NONE',  ( 1.000000000000000000, 0.0000000000000000000, -0.0000000000000000000 ) ) ;
#239 = COORDINATED_UNIVERSAL_TIME_OFFSET ( 8, 0, .BEHIND. ) ;
#240 = ORIENTED_EDGE ( 'NONE', *, *, #304, .T. ) ;
#241 = AXIS2_PLACEMENT_3D ( 'NONE', #353, #160, #314 ) ;
#242 = CARTESIAN_POINT ( 'NONE',  ( 0.0000000000000000000, 1.682885784211133100, 0.0000000000000000000 ) ) ;
#243 = ORIENTED_EDGE ( 'NONE', *, *, #209, .F. ) ;
#244 = EDGE_LOOP ( 'NONE', ( #330, #32, #119, #269 ) ) ;
#245 = CC_DESIGN_PERSON_AND_ORGANIZATION_ASSIGNMENT ( #352, #259, ( #200 ) ) ;
#246 = EDGE_LOOP ( 'NONE', ( #152, #346, #183, #175 ) ) ;
#247 = CARTESIAN_POINT ( 'NONE',  ( 1.145044757202774300E-017, 0.9599999999999999600, -0.09349999999999991700 ) ) ;
#248 = EDGE_CURVE ( 'NONE', #294, #339, #17, .T. ) ;
#249 = CARTESIAN_POINT ( 'NONE',  ( 0.0000000000000000000, 0.02000000000000005900, -1.365923996832131600E-016 ) ) ;
#250 = CARTESIAN_POINT ( 'NONE',  ( 1.530808498934190300E-017, 1.682885784211133100, -0.1249999999999999200 ) ) ;
#251 = ORIENTED_EDGE ( 'NONE', *, *, #123, .T. ) ;
#252 = CARTESIAN_POINT ( 'NONE',  ( 0.1099306599634514000, 1.060000000000000300, 0.05950000000000001800 ) ) ;
#253 = CIRCLE ( 'NONE', #241, 0.1249999999999999200 ) ;
#254 = DIRECTION ( 'NONE',  ( 1.000000000000000000, 0.0000000000000000000, 1.224646799147353200E-016 ) ) ;
#255 = ORIENTED_EDGE ( 'NONE', *, *, #304, .F. ) ;
#256 = VERTEX_POINT ( 'NONE', #90 ) ;
#257 = ORIENTED_EDGE ( 'NONE', *, *, #185, .T. ) ;
#258 = CARTESIAN_POINT ( 'NONE',  ( 0.0000000000000000000, 0.0000000000000000000, 0.0000000000000000000 ) ) ;
#259 = PERSON_AND_ORGANIZATION_ROLE ( 'creator' ) ;
#260 = AXIS2_PLACEMENT_3D ( 'NONE', #217, #158, #292 ) ;
#261 = CARTESIAN_POINT ( 'NONE',  ( 1.145044757202774300E-017, 0.9599999999999999600, -0.09349999999999991700 ) ) ;
#262 = ORIENTED_EDGE ( 'NONE', *, *, #204, .T. ) ;
#263 = VECTOR ( 'NONE', #144, 39.37007874015748100 ) ;
#264 = ORIENTED_EDGE ( 'NONE', *, *, #222, .F. ) ;
#265 = DATE_AND_TIME ( #340, #49 ) ;
#266 = DIRECTION ( 'NONE',  ( -0.0000000000000000000, 1.000000000000000000, -0.0000000000000000000 ) ) ;
#267 = CARTESIAN_POINT ( 'NONE',  ( 0.1099306599634514000, 1.060000000000000300, -0.05950000000000001800 ) ) ;
#268 = CC_DESIGN_PERSON_AND_ORGANIZATION_ASSIGNMENT ( #274, #92, ( #200 ) ) ;
#269 = ORIENTED_EDGE ( 'NONE', *, *, #271, .F. ) ;
#270 = SHAPE_DEFINITION_REPRESENTATION ( #189, #225 ) ;
#271 = EDGE_CURVE ( 'NONE', #113, #339, #279, .T. ) ;
#272 = FACE_OUTER_BOUND ( 'NONE', #169, .T. ) ;
#273 = CIRCLE ( 'NONE', #155, 0.09349999999999991700 ) ;
#274 = PERSON_AND_ORGANIZATION ( #6, #178 ) ;
#275 = CARTESIAN_POINT ( 'NONE',  ( 0.0000000000000000000, 0.0000000000000000000, 0.0000000000000000000 ) ) ;
#276 = PLANE ( 'NONE',  #91 ) ;
#277 = VERTEX_POINT ( 'NONE', #170 ) ;
#278 =( NAMED_UNIT ( * ) PLANE_ANGLE_UNIT ( ) SI_UNIT ( $, .RADIAN. ) );
#279 = CIRCLE ( 'NONE', #350, 0.1249999999999999200 ) ;
#280 = COORDINATED_UNIVERSAL_TIME_OFFSET ( 8, 0, .BEHIND. ) ;
#281 = UNCERTAINTY_MEASURE_WITH_UNIT (LENGTH_MEASURE( 1.000000000000000100E-005 ), #86, 'distance_accuracy_value', 'NONE');
#282 = AXIS2_PLACEMENT_3D ( 'NONE', #111, #305, #141 ) ;
#283 = LOCAL_TIME ( 15, 3, 59.00000000000000000, #5 ) ;
#284 = DIRECTION ( 'NONE',  ( 0.0000000000000000000, 0.0000000000000000000, 1.000000000000000000 ) ) ;
#285 = SECURITY_CLASSIFICATION ( '', '', #290 ) ;
#286 = ORIENTED_EDGE ( 'NONE', *, *, #149, .T. ) ;
#287 = EDGE_CURVE ( 'NONE', #25, #317, #129, .T. ) ;
#288 = CARTESIAN_POINT ( 'NONE',  ( 0.0000000000000000000, 0.9600000000000003000, 0.0000000000000000000 ) ) ;
#289 = LINE ( 'NONE', #267, #75 ) ;
#290 = SECURITY_CLASSIFICATION_LEVEL ( 'unclassified' ) ;
#291 = APPROVAL_DATE_TIME ( #14, #341 ) ;
#292 = DIRECTION ( 'NONE',  ( 0.0000000000000000000, 0.0000000000000000000, 1.000000000000000000 ) ) ;
#293 = AXIS2_PLACEMENT_3D ( 'NONE', #162, #190, #96 ) ;
#294 = VERTEX_POINT ( 'NONE', #137 ) ;
#295 = CIRCLE ( 'NONE', #308, 0.1249999999999999200 ) ;
#296 = ADVANCED_FACE ( 'NONE', ( #344 ), #206, .T. ) ;
#297 = AXIS2_PLACEMENT_3D ( 'NONE', #184, #238, #72 ) ;
#298 = CC_DESIGN_PERSON_AND_ORGANIZATION_ASSIGNMENT ( #211, #125, ( #285 ) ) ;
#299 = CIRCLE ( 'NONE', #324, 0.07999999999999996000 ) ;
#300 = CARTESIAN_POINT ( 'NONE',  ( 0.1099306599634514000, 0.9600000000000001900, -0.05950000000000001800 ) ) ;
#301 = ADVANCED_FACE ( 'NONE', ( #272 ), #212, .T. ) ;
#302 = DIRECTION ( 'NONE',  ( 0.0000000000000000000, 0.0000000000000000000, 1.000000000000000000 ) ) ;
#303 = DIRECTION ( 'NONE',  ( 0.0000000000000000000, -0.0000000000000000000, -1.000000000000000000 ) ) ;
#304 = EDGE_CURVE ( 'NONE', #25, #30, #153, .T. ) ;
#305 = DIRECTION ( 'NONE',  ( 1.000000000000000000, -0.0000000000000000000, -0.0000000000000000000 ) ) ;
#306 = DIRECTION ( 'NONE',  ( -0.0000000000000000000, -1.000000000000000000, -0.0000000000000000000 ) ) ;
#307 = DIRECTION ( 'NONE',  ( -0.0000000000000000000, 1.000000000000000000, -0.0000000000000000000 ) ) ;
#308 = AXIS2_PLACEMENT_3D ( 'NONE', #288, #228, #53 ) ;
#309 =( LENGTH_UNIT ( ) NAMED_UNIT ( * ) SI_UNIT ( $, .METRE. ) );
#310 = APPROVAL_PERSON_ORGANIZATION ( #23, #118, #18 ) ;
#311 = ORIENTED_EDGE ( 'NONE', *, *, #164, .T. ) ;
#312 = DATE_TIME_ROLE ( 'classification_date' ) ;
#313 = ORIENTED_EDGE ( 'NONE', *, *, #99, .T. ) ;
#314 = DIRECTION ( 'NONE',  ( 0.0000000000000000000, 0.0000000000000000000, 1.000000000000000000 ) ) ;
#315 = AXIS2_PLACEMENT_3D ( 'NONE', #33, #235, #64 ) ;
#316 = DIRECTION ( 'NONE',  ( 0.0000000000000000000, 0.0000000000000000000, 1.000000000000000000 ) ) ;
#317 = VERTEX_POINT ( 'NONE', #165 ) ;
#318 = DIRECTION ( 'NONE',  ( -0.0000000000000000000, -1.000000000000000000, -0.0000000000000000000 ) ) ;
#319 = CC_DESIGN_DATE_AND_TIME_ASSIGNMENT ( #265, #312, ( #285 ) ) ;
#320 = ADVANCED_FACE ( 'NONE', ( #50 ), #342, .T. ) ;
#321 = EDGE_CURVE ( 'NONE', #113, #89, #122, .T. ) ;
#322 = ORIENTED_EDGE ( 'NONE', *, *, #180, .F. ) ;
#323 = DIRECTION ( 'NONE',  ( 0.0000000000000000000, 0.9999011377094364500, 0.01406110974903890600 ) ) ;
#324 = AXIS2_PLACEMENT_3D ( 'NONE', #275, #109, #302 ) ;
#325 = CIRCLE ( 'NONE', #216, 1.000000000000000200 ) ;
#326 = ORIENTED_EDGE ( 'NONE', *, *, #287, .F. ) ;
#327 = ORIENTED_EDGE ( 'NONE', *, *, #84, .T. ) ;
#328 = ADVANCED_FACE ( 'NONE', ( #44 ), #45, .T. ) ;
#329 = CARTESIAN_POINT ( 'NONE',  ( 0.0000000000000000000, 1.012156741649221600, 0.0000000000000000000 ) ) ;
#330 = ORIENTED_EDGE ( 'NONE', *, *, #123, .F. ) ;
#331 = CARTESIAN_POINT ( 'NONE',  ( 0.0000000000000000000, -4.898587196589413500E-018, 0.0000000000000000000 ) ) ;
#332 = DIRECTION ( 'NONE',  ( -0.0000000000000000000, 1.000000000000000000, -0.0000000000000000000 ) ) ;
#333 = DIRECTION ( 'NONE',  ( 0.0000000000000000000, 0.0000000000000000000, 1.000000000000000000 ) ) ;
#334 = CARTESIAN_POINT ( 'NONE',  ( 0.0000000000000000000, 1.682885784211133100, 0.1249999999999999200 ) ) ;
#335 = CARTESIAN_POINT ( 'NONE',  ( 0.1099306599634514000, 0.9600000000000003000, 0.05950000000000001800 ) ) ;
#336 = AXIS2_PLACEMENT_3D ( 'NONE', #36, #343, #181 ) ;
#337 = LINE ( 'NONE', #261, #102 ) ;
#338 = CARTESIAN_POINT ( 'NONE',  ( 0.0000000000000000000, 0.0000000000000000000, 0.0000000000000000000 ) ) ;
#339 = VERTEX_POINT ( 'NONE', #151 ) ;
#340 = CALENDAR_DATE ( 2016, 29, 6 ) ;
#341 = APPROVAL ( #157, 'UNSPECIFIED' ) ;
#342 = SPHERICAL_SURFACE ( 'NONE', #77, 1.000000000000000200 ) ;
#343 = DIRECTION ( 'NONE',  ( -0.0000000000000000000, 1.000000000000000000, -0.0000000000000000000 ) ) ;
#344 = FACE_OUTER_BOUND ( 'NONE', #244, .T. ) ;
#345 = APPLICATION_PROTOCOL_DEFINITION ( 'international standard', 'config_control_design', 1994, #154 ) ;
#346 = ORIENTED_EDGE ( 'NONE', *, *, #138, .T. ) ;
#347 = MANIFOLD_SOLID_BREP ( 'Cut-Extrude1', #65 ) ;
#348 = APPROVAL_ROLE ( '' ) ;
#349 = CARTESIAN_POINT ( 'NONE',  ( 0.0000000000000000000, 0.02000000000000005900, -1.365923996832131600E-016 ) ) ;
#350 = AXIS2_PLACEMENT_3D ( 'NONE', #329, #168, #7 ) ;
#351 = LINE ( 'NONE', #252, #195 ) ;
#352 = PERSON_AND_ORGANIZATION ( #6, #178 ) ;
#353 = CARTESIAN_POINT ( 'NONE',  ( 0.0000000000000000000, 1.012156741649221600, 0.0000000000000000000 ) ) ;
ENDSEC;
END-ISO-10303-21;
